  0
SECTION
  2
HEADER
  9
$ACADVER
  1
AC1015
  9
$ACADMAINTVER
 70
           6
  9
$DWGCODEPAGE
  3
ANSI_1252
  9
$INSBASE
 10
0.0
 20
0.0
 30
0.0
  9
$EXTMIN
 10
-5.500000056079
 20
-4.35135384439
 30
-0.000000235132
  9
$EXTMAX
 10
106.681576944444
 20
29.496750194286
 30
0.000000235132
  9
$LIMMIN
 10
72.0
 20
8.0
  9
$LIMMAX
 10
80.5
 20
19.0
  9
$ORTHOMODE
 70
           0
  9
$REGENMODE
 70
           1
  9
$FILLMODE
 70
           1
  9
$QTEXTMODE
 70
           0
  9
$MIRRTEXT
 70
           1
  9
$LTSCALE
 40
1.0
  9
$ATTMODE
 70
           1
  9
$TEXTSIZE
 40
0.25
  9
$TRACEWID
 40
1.0
  9
$TEXTSTYLE
  7
STANDARD
  9
$CLAYER
  8
0
  9
$CELTYPE
  6
Continuous
  9
$CECOLOR
 62
           7
  9
$CELTSCALE
 40
1.0
  9
$DISPSILH
 70
           0
  9
$DIMSCALE
 40
1.0
  9
$DIMASZ
 40
0.25
  9
$DIMEXO
 40
0.0625
  9
$DIMDLI
 40
0.375
  9
$DIMRND
 40
0.01
  9
$DIMDLE
 40
0.0
  9
$DIMEXE
 40
0.125
  9
$DIMTP
 40
0.0
  9
$DIMTM
 40
0.0
  9
$DIMTXT
 40
0.15
  9
$DIMCEN
 40
0.09
  9
$DIMTSZ
 40
0.0
  9
$DIMTOL
 70
           0
  9
$DIMLIM
 70
           0
  9
$DIMTIH
 70
           1
  9
$DIMTOH
 70
           1
  9
$DIMSE1
 70
           0
  9
$DIMSE2
 70
           0
  9
$DIMTAD
 70
           1
  9
$DIMZIN
 70
           0
  9
$DIMBLK
  1

  9
$DIMASO
 70
           0
  9
$DIMSHO
 70
           1
  9
$DIMPOST
  1
<>in
  9
$DIMAPOST
  1

  9
$DIMALT
 70
           0
  9
$DIMALTD
 70
           2
  9
$DIMALTF
 40
1.0
  9
$DIMLFAC
 40
1.0
  9
$DIMTOFL
 70
           1
  9
$DIMTVP
 40
0.0
  9
$DIMTIX
 70
           0
  9
$DIMSOXD
 70
           0
  9
$DIMSAH
 70
           0
  9
$DIMBLK1
  1

  9
$DIMBLK2
  1

  9
$DIMSTYLE
  2
STANDARD
  9
$DIMCLRD
 70
           7
  9
$DIMCLRE
 70
           7
  9
$DIMCLRT
 70
           7
  9
$DIMTFAC
 40
1.0
  9
$DIMGAP
 40
0.0625
  9
$DIMJUST
 70
           0
  9
$DIMSD1
 70
           0
  9
$DIMSD2
 70
           0
  9
$DIMTOLJ
 70
           1
  9
$DIMTZIN
 70
           0
  9
$DIMALTZ
 70
           0
  9
$DIMALTTZ
 70
           0
  9
$DIMUPT
 70
           0
  9
$DIMDEC
 70
           2
  9
$DIMTDEC
 70
           2
  9
$DIMALTU
 70
           2
  9
$DIMALTTD
 70
           2
  9
$DIMTXSTY
  7
STANDARD
  9
$DIMAUNIT
 70
           0
  9
$DIMADEC
 70
           2
  9
$DIMALTRND
 40
0.0
  9
$DIMAZIN
 70
           0
  9
$DIMDSEP
 70
           0
  9
$DIMATFIT
 70
           0
  9
$DIMFRAC
 70
           0
  9
$DIMLDRBLK
  1

  9
$DIMLUNIT
 70
           2
  9
$DIMLWD
 70
           0
  9
$DIMLWE
 70
           0
  9
$DIMTMOVE
 70
           0
  9
$LUNITS
 70
           2
  9
$LUPREC
 70
           4
  9
$SKETCHINC
 40
1.0
  9
$FILLETRAD
 40
1.0
  9
$AUNITS
 70
           0
  9
$AUPREC
 70
           2
  9
$MENU
  1
acad
  9
$ELEVATION
 40
0.0
  9
$PELEVATION
 40
0.0
  9
$THICKNESS
 40
0.0
  9
$LIMCHECK
 70
           0
  9
$CHAMFERA
 40
0.0
  9
$CHAMFERB
 40
0.0
  9
$CHAMFERC
 40
0.0
  9
$CHAMFERD
 40
0.0
  9
$SKPOLY
 70
           0
  9
$TDCREATE
 40
0.000000000
  9
$TDUCREATE
 40
0.000000000
  9
$TDUPDATE
 40
2449702.667959363
  9
$TDUUPDATE
 40
0.000000000
  9
$TDINDWG
 40
0.0000000000
  9
$TDUSRTIMER
 40
0.0000000000
  9
$USRTIMER
 70
           1
  9
$ANGBASE
 50
0.0
  9
$ANGDIR
 70
           0
  9
$PDMODE
 70
           0
  9
$PDSIZE
 40
0.0
  9
$PLINEWID
 40
0.0
  9
$SPLFRAME
 70
           0
  9
$SPLINETYPE
 70
           5
  9
$SPLINESEGS
 70
          20
  9
$HANDSEED
  5
3C1
  9
$SURFTAB1
 70
           6
  9
$SURFTAB2
 70
           6
  9
$SURFTYPE
 70
           6
  9
$SURFU
 70
           6
  9
$SURFV
 70
           6
  9
$UCSBASE
  2

  9
$UCSNAME
  2

  9
$UCSORG
 10
0.0
 20
0.0
 30
0.0
  9
$UCSXDIR
 10
1.0
 20
0.0
 30
0.0
  9
$UCSYDIR
 10
0.0
 20
1.0
 30
0.0
  9
$UCSORTHOREF
  2

  9
$UCSORTHOVIEW
 70
           0
  9
$UCSORGTOP
 10
0.0
 20
0.0
 30
0.0
  9
$UCSORGBOTTOM
 10
0.0
 20
0.0
 30
0.0
  9
$UCSORGLEFT
 10
0.0
 20
0.0
 30
0.0
  9
$UCSORGRIGHT
 10
0.0
 20
0.0
 30
0.0
  9
$UCSORGFRONT
 10
0.0
 20
0.0
 30
0.0
  9
$UCSORGBACK
 10
0.0
 20
0.0
 30
0.0
  9
$PUCSBASE
  2

  9
$PUCSNAME
  2

  9
$PUCSORG
 10
0.0
 20
0.0
 30
0.0
  9
$PUCSXDIR
 10
1.0
 20
0.0
 30
0.0
  9
$PUCSYDIR
 10
0.0
 20
1.0
 30
0.0
  9
$PUCSORTHOREF
  2

  9
$PUCSORTHOVIEW
 70
           0
  9
$PUCSORGTOP
 10
0.0
 20
0.0
 30
0.0
  9
$PUCSORGBOTTOM
 10
0.0
 20
0.0
 30
0.0
  9
$PUCSORGLEFT
 10
0.0
 20
0.0
 30
0.0
  9
$PUCSORGRIGHT
 10
0.0
 20
0.0
 30
0.0
  9
$PUCSORGFRONT
 10
0.0
 20
0.0
 30
0.0
  9
$PUCSORGBACK
 10
0.0
 20
0.0
 30
0.0
  9
$USERI1
 70
           0
  9
$USERI2
 70
           0
  9
$USERI3
 70
           0
  9
$USERI4
 70
           0
  9
$USERI5
 70
           0
  9
$USERR1
 40
0.0
  9
$USERR2
 40
0.0
  9
$USERR3
 40
0.0
  9
$USERR4
 40
0.0
  9
$USERR5
 40
0.0
  9
$WORLDVIEW
 70
           1
  9
$SHADEDGE
 70
           3
  9
$SHADEDIF
 70
          70
  9
$TILEMODE
 70
           1
  9
$MAXACTVP
 70
          16
  9
$PINSBASE
 10
0.0
 20
0.0
 30
0.0
  9
$PLIMCHECK
 70
           0
  9
$PEXTMIN
 10
0.0
 20
0.0
 30
0.0
  9
$PEXTMAX
 10
0.0
 20
0.0
 30
0.0
  9
$PLIMMIN
 10
0.0
 20
0.0
  9
$PLIMMAX
 10
0.0
 20
0.0
  9
$UNITMODE
 70
           0
  9
$VISRETAIN
 70
           0
  9
$PLINEGEN
 70
           1
  9
$PSLTSCALE
 70
           1
  9
$TREEDEPTH
 70
        3020
  9
$CMLSTYLE
  2
STANDARD
  9
$CMLJUST
 70
           0
  9
$CMLSCALE
 40
1.0
  9
$PROXYGRAPHICS
 70
           0
  9
$MEASUREMENT
 70
           0
  9
$CELWEIGHT
370
           0
  9
$ENDCAPS
280
           0
  9
$JOINSTYLE
280
           0
  9
$LWDISPLAY
290
           0
  9
$INSUNITS
 70
           0
  9
$HYPERLINKBASE
  1

  9
$STYLESHEET
  1

  9
$XEDIT
290
           1
  9
$CEPSNTYPE
380
           0
  9
$PSTYLEMODE
290
           1
  9
$FINGERPRINTGUID
  2

  9
$VERSIONGUID
  2

  9
$EXTNAMES
290
           1
  9
$PSVPSCALE
 40
0.0
  0
ENDSEC
  0
SECTION
  2
CLASSES
  0
CLASS
  1
LWPOLYLINE
  2
AcDbPolyline
  3
AutoCAD 2000
 90
        0
280
           0
281
           1
  0
CLASS
  1
IMAGE
  2
AcDbRasterImage
  3
ISM
 90
    32895
280
           0
281
           1
  0
CLASS
  1
OLE2FRAME
  2
AcDbOle2Frame
  3
AutoCAD 2000
 90
    32768
280
           0
281
           1
  0
CLASS
  1
HATCH
  2
AcDbHatch
  3
AutoCAD 2000
 90
    32768
280
           0
281
           1
  0
CLASS
  1
DICTIONARYVAR
  2
AcDbDictionaryVar
  3
AutoCAD 2000
 90
    32768
280
           0
281
           0
  0
CLASS
  1
RASTERVARIABLES
  2
AcDbRasterVariables
  3
ISM
 90
    32768
280
           0
281
           0
  0
CLASS
  1
IMAGEDEF
  2
AcDbRasterImageDef
  3
ISM
 90
    32768
280
           0
281
           0
  0
CLASS
  1
IMAGEDEF_REACTOR
  2
AcDbRasterImageDefReactor
  3
ISM
 90
    32769
280
           0
281
           0
  0
CLASS
  1
IDBUFFER
  2
AcDbIdBuffer
  3
AutoCAD 2000
 90
    32768
280
           0
281
           0
  0
CLASS
  1
SPATIAL_FILTER
  2
AcDbSpatialFilter
  3
AutoCAD 2000
 90
    32768
280
           0
281
           0
  0
CLASS
  1
XRECORD
  2
AcDbXrecord
  3
AutoCAD 2000
 90
    32768
280
           0
281
           0
  0
CLASS
  1
SORTENTSTABLE
  2
AcDbSortentsTable
  3
AutoCAD 2000
 90
    32768
280
           0
281
           0
  0
CLASS
  1
LAYER_INDEX
  2
AcDbLayerIndex
  3
AutoCAD 2000
 90
    32768
280
           0
281
           0
  0
CLASS
  1
SPATIAL_INDEX
  2
AcDbSpatialIndex
  3
AutoCAD 2000
 90
    32768
280
           0
281
           0
  0
CLASS
  1
OBJECT_PTR
  2
CAseDLPNTableRecord
  3
"ASE-LPNTableRecord"
 90
    32769
280
           0
281
           0
  0
CLASS
  1
LAYOUT
  2
AcDbLayout
  3
AutoCAD 2000
 90
        0
280
           0
281
           0
  0
CLASS
  1
PLOTSETTINGS
  2
AcDbPlotSettings
  3
AutoCAD 2000
 90
    32768
280
           0
281
           0
  0
CLASS
  1
ACDBDICTIONARYWDFLT
  2
AcDbDictionaryWithDefault
  3
AutoCAD 2000
 90
        0
280
           0
281
           0
  0
CLASS
  1
ACDBPLACEHOLDER
  2
AcDbPlaceHolder
  3
AutoCAD 2000
 90
        0
280
           0
281
           0
  0
ENDSEC
  0
SECTION
  2
TABLES
  0
TABLE
  2
VPORT
  5
7
100
AcDbSymbolTable
 70
           1
  0
VPORT
  5
15
100
AcDbSymbolTableRecord
100
AcDbViewportTableRecord
  2
*ACTIVE
 70
           0
 10
0.0
 20
0.0
 11
1.0
 21
1.0
 12
0.0
 22
0.0
 13
0.0
 23
0.0
 14
0.5
 24
0.5
 15
0.5
 25
0.5
 16
0.0
 26
0.0
 36
1.0
 17
5.701508957019
 27
12.87225297607
 37
0.0
 40
34.549529317286
 41
2.005059021922
 42
50.0
 43
0.0
 44
0.0
 50
0.0
 51
0.0
 71
           0
 72
         100
 73
           1
 74
           1
 75
           0
 76
           0
 77
           0
 78
           0
281
           0
 65
           0
110
0.0
120
0.0
130
0.0
111
1.0
121
0.0
131
0.0
112
0.0
122
1.0
132
0.0
345
0
346
0
 79
           0
146
0.0
  0
ENDTAB
  0
TABLE
  2
LTYPE
  5
4
100
AcDbSymbolTable
 70
          15
  0
LTYPE
  5
11
100
AcDbSymbolTableRecord
100
AcDbLinetypeTableRecord
  2
ByBlock
 70
          64
  3

 72
          65
 73
           0
 40
0.0
  0
LTYPE
  5
12
100
AcDbSymbolTableRecord
100
AcDbLinetypeTableRecord
  2
ByLayer
 70
          64
  3

 72
          65
 73
           0
 40
0.0
  0
LTYPE
  5
13
100
AcDbSymbolTableRecord
100
AcDbLinetypeTableRecord
  2
Continuous
 70
          64
  3
Solid line
 72
          65
 73
           0
 40
0.0
  0
LTYPE
  5
24
100
AcDbSymbolTableRecord
100
AcDbLinetypeTableRecord
  2
BORDER
 70
           0
  3
BORDER
 72
          65
 73
           6
 40
1.75
 49
0.5
 74
           0
 49
-0.25
 74
           0
 49
0.5
 74
           0
 49
-0.25
 74
           0
 49
0.0
 74
           0
 49
-0.25
 74
           0
  0
LTYPE
  5
25
100
AcDbSymbolTableRecord
100
AcDbLinetypeTableRecord
  2
CENTER
 70
           0
  3
CENTER
 72
          65
 73
           4
 40
2.0
 49
1.25
 74
           0
 49
-0.25
 74
           0
 49
0.25
 74
           0
 49
-0.25
 74
           0
  0
LTYPE
  5
26
100
AcDbSymbolTableRecord
100
AcDbLinetypeTableRecord
  2
DASHDOT
 70
           0
  3
DASHDOT
 72
          65
 73
           4
 40
1.0
 49
0.5
 74
           0
 49
-0.25
 74
           0
 49
0.0
 74
           0
 49
-0.25
 74
           0
  0
LTYPE
  5
27
100
AcDbSymbolTableRecord
100
AcDbLinetypeTableRecord
  2
DASHED
 70
           0
  3
DASHED
 72
          65
 73
           2
 40
0.75
 49
0.5
 74
           0
 49
-0.25
 74
           0
  0
LTYPE
  5
28
100
AcDbSymbolTableRecord
100
AcDbLinetypeTableRecord
  2
DIVIDE
 70
           0
  3
DIVIDE
 72
          65
 73
           6
 40
1.25
 49
0.5
 74
           0
 49
-0.25
 74
           0
 49
0.0
 74
           0
 49
-0.25
 74
           0
 49
0.0
 74
           0
 49
-0.25
 74
           0
  0
LTYPE
  5
29
100
AcDbSymbolTableRecord
100
AcDbLinetypeTableRecord
  2
DOT
 70
           0
  3
DOT
 72
          65
 73
           2
 40
0.25
 49
0.0
 74
           0
 49
-0.25
 74
           0
  0
LTYPE
  5
2A
100
AcDbSymbolTableRecord
100
AcDbLinetypeTableRecord
  2
HIDDEN
 70
           0
  3
HIDDEN
 72
          65
 73
           2
 40
0.375
 49
0.25
 74
           0
 49
-0.125
 74
           0
  0
LTYPE
  5
2B
100
AcDbSymbolTableRecord
100
AcDbLinetypeTableRecord
  2
PHANTOM
 70
           0
  3
PHANTOM
 72
          65
 73
           6
 40
2.5
 49
1.25
 74
           0
 49
-0.25
 74
           0
 49
0.25
 74
           0
 49
-0.25
 74
           0
 49
0.25
 74
           0
 49
-0.25
 74
           0
  0
LTYPE
  5
2C
100
AcDbSymbolTableRecord
100
AcDbLinetypeTableRecord
  2
$INVISIBLE
 70
           0
  3
$INVISIBLE
 72
          65
 73
           2
 40
200.0
 49
-100.0
 74
           0
 49
-100.0
 74
           0
  0
LTYPE
  5
2D
100
AcDbSymbolTableRecord
100
AcDbLinetypeTableRecord
  2
$SNAPEXT
 70
           0
  3
$SNAPEXT
 72
          65
 73
           2
 40
0.04
 49
0.02
 74
           0
 49
-0.02
 74
           0
  0
LTYPE
  5
2E
100
AcDbSymbolTableRecord
100
AcDbLinetypeTableRecord
  2
$AUXILIARY
 70
           0
  3
$AUXILIARY
 72
          65
 73
           2
 40
0.1
 49
0.05
 74
           0
 49
-0.05
 74
           0
  0
LTYPE
  5
2F
100
AcDbSymbolTableRecord
100
AcDbLinetypeTableRecord
  2
$CONSTRUCTION
 70
           0
  3
$CONSTRUCTION
 72
          65
 73
           4
 40
0.3
 49
0.2
 74
           0
 49
-0.05
 74
           0
 49
0.0
 74
           0
 49
-0.05
 74
           0
  0
ENDTAB
  0
TABLE
  2
LAYER
  5
2
100
AcDbSymbolTable
 70
           5
  0
LAYER
  5
14
100
AcDbSymbolTableRecord
100
AcDbLayerTableRecord
  2
0
 70
           0
 62
           7
  6
Continuous
290
           1
370
           0
390
0
1001
TCAD
1000
TCW_LAYER_ORDER
1002
{
1071
        0
1002
}
  0
LAYER
  5
30
100
AcDbSymbolTableRecord
100
AcDbLayerTableRecord
  2
Exterior View
 70
           0
 62
           7
  6
Continuous
290
           1
370
           0
390
0
1001
TCAD
1000
TCW_LAYER_ORDER
1002
{
1071
        0
1002
}
  0
LAYER
  5
31
100
AcDbSymbolTableRecord
100
AcDbLayerTableRecord
  2
Hidden
 70
           0
 62
           7
  6
HIDDEN
290
           1
370
           0
390
0
1001
TCAD
1000
TCW_LAYER_ORDER
1002
{
1071
        0
1002
}
  0
LAYER
  5
32
100
AcDbSymbolTableRecord
100
AcDbLayerTableRecord
  2
Strings
 70
           0
 62
           7
  6
Continuous
290
           1
370
           0
390
0
1001
TCAD
1000
TCW_LAYER_ORDER
1002
{
1071
        0
1002
}
  0
LAYER
  5
33
100
AcDbSymbolTableRecord
100
AcDbLayerTableRecord
  2
$CONSTRUCTION
 70
           0
 62
           9
  6
$CONSTRUCTION
290
           1
370
           0
390
0
1001
TCAD
1000
TCW_LAYER_ORDER
1002
{
1071
        0
1002
}
  0
ENDTAB
  0
TABLE
  2
STYLE
  5
3
100
AcDbSymbolTable
 70
           1
  0
STYLE
  5
17
100
AcDbSymbolTableRecord
100
AcDbTextStyleTableRecord
  2
STANDARD
 70
           0
 40
0.0
 41
1.0
 50
0.0
 71
           0
 42
0.15000000596
  3
TIMES.TTF
  4

1001
ACAD
1000
Times New Roman
1071
      290
  0
ENDTAB
  0
TABLE
  2
VIEW
  5
5
100
AcDbSymbolTable
 70
           1
  0
VIEW
  5
34
100
AcDbSymbolTableRecord
100
AcDbViewTableRecord
  2
View_0
 70
           0
 40
8.267716535433
 10
5.846456692913
 20
4.133858267717
 41
11.692913385827
 11
0.0
 21
0.0
 31
1.0
 12
0.0
 22
0.0
 32
0.0
 42
92.090489446729
 43
0.0
 44
0.0
 50
0.0
 71
           0
281
           0
 72
           0
110
0.0
120
0.0
130
0.0
111
1.0
121
0.0
131
0.0
112
0.0
122
1.0
132
0.0
  0
ENDTAB
  0
TABLE
  2
UCS
  5
6
100
AcDbSymbolTable
 70
           0
  0
ENDTAB
  0
TABLE
  2
APPID
  5
8
100
AcDbSymbolTable
 70
           2
  0
APPID
  5
16
100
AcDbSymbolTableRecord
100
AcDbRegAppTableRecord
  2
ACAD
 70
           0
  0
APPID
  5
23
100
AcDbSymbolTableRecord
100
AcDbRegAppTableRecord
  2
TCAD
 70
           0
  0
ENDTAB
  0
TABLE
  2
DIMSTYLE
  5
9
100
AcDbSymbolTable
 70
           1
100
AcDbDimStyleTable
 71
           0
  0
DIMSTYLE
105
18
100
AcDbSymbolTableRecord
100
AcDbDimStyleTableRecord
  2
STANDARD
 70
           0
  3
<>in
  4

 40
1.0
 41
0.25
 42
0.0625
 43
0.375
 44
0.125
 45
0.01
 46
0.0
 47
0.0
 48
0.0
 71
           0
 72
           0
 73
           1
 74
           1
 75
           0
 76
           0
 77
           1
 78
           0
 79
           0
140
0.15
141
0.09
142
0.0
143
1.0
144
1.0
145
0.0
146
1.0
147
0.0625
148
0.01
170
           0
171
           2
172
           1
173
           0
174
           0
175
           0
176
           7
177
           7
178
           7
179
           2
271
           2
272
           2
273
           2
274
           2
275
           0
276
           0
277
           2
278
          46
279
           0
280
           0
281
           0
282
           0
283
           1
284
           0
285
           0
286
           0
288
           0
340
17
341
0
342
0
343
0
344
0
371
          -2
372
          -2
  0
ENDTAB
  0
TABLE
  2
BLOCK_RECORD
  5
1
100
AcDbSymbolTable
 70
           0
  0
BLOCK_RECORD
  5
A
100
AcDbSymbolTableRecord
100
AcDbBlockTableRecord
  2
*MODEL_SPACE
340
3BF
  0
BLOCK_RECORD
  5
B
100
AcDbSymbolTableRecord
100
AcDbBlockTableRecord
  2
*PAPER_SPACE
340
3C0
  0
ENDTAB
  0
ENDSEC
  0
SECTION
  2
BLOCKS
  0
BLOCK
  5
D
100
AcDbEntity
  8
0
100
AcDbBlockBegin
  2
*MODEL_SPACE
 70
           0
 10
0.0
 20
0.0
 30
0.0
  3
*MODEL_SPACE
  1

  0
ENDBLK
  5
E
100
AcDbEntity
  8
0
100
AcDbBlockEnd
  0
BLOCK
  5
F
100
AcDbEntity
 67
           1
  8
0
100
AcDbBlockBegin
  2
*PAPER_SPACE
 70
           0
 10
0.0
 20
0.0
 30
0.0
  3
*PAPER_SPACE
  1

  0
ENDBLK
  5
10
100
AcDbEntity
 67
           1
  8
0
100
AcDbBlockEnd
  0
ENDSEC
  0
SECTION
  2
ENTITIES
  0
LINE
  5
35
100
AcDbEntity
  8
Exterior View
370
           0
  6
Continuous
 62
           7
100
AcDbLine
 10
0.638836882194
 20
21.99315981532
 30
0.0
 11
-0.638836882196
 21
21.99315981532
 31
0.0
1001
TCAD
1000
TCW_CUSTOM_DATA
1002
{
1000
#$AUX@_ToolInfo Properties
1070
           8
1000
Insert^JLine^JPerpendicular@Line Perpendicular
1002
}
  0
LINE
  5
36
100
AcDbEntity
  8
Exterior View
370
           0
  6
Continuous
 62
           7
100
AcDbLine
 10
0.651898898985
 20
20.81315981532
 30
0.0
 11
-0.651898898987
 21
20.81315981532
 31
0.0
1001
TCAD
1000
TCW_CUSTOM_DATA
1002
{
1000
#$AUX@_ToolInfo Properties
1070
           8
1000
Insert^JLine^JPerpendicular@Line Perpendicular
1002
}
  0
LINE
  5
37
100
AcDbEntity
  8
Exterior View
370
           0
  6
Continuous
 62
           7
100
AcDbLine
 10
0.664219258891
 20
19.70015981532
 30
0.0
 11
-0.664219258893
 21
19.70015981532
 31
0.0
1001
TCAD
1000
TCW_CUSTOM_DATA
1002
{
1000
#$AUX@_ToolInfo Properties
1070
           8
1000
Insert^JLine^JPerpendicular@Line Perpendicular
1002
}
  0
LINE
  5
38
100
AcDbEntity
  8
Exterior View
370
           0
  6
Continuous
 62
           7
100
AcDbLine
 10
0.675853309441
 20
18.64915981532
 30
0.0
 11
-0.675853309443
 21
18.64915981532
 31
0.0
1001
TCAD
1000
TCW_CUSTOM_DATA
1002
{
1000
#$AUX@_ToolInfo Properties
1070
           8
1000
Insert^JLine^JPerpendicular@Line Perpendicular
1002
}
  0
LINE
  5
39
100
AcDbEntity
  8
Exterior View
370
           0
  6
Continuous
 62
           7
100
AcDbLine
 10
0.68683425915
 20
17.65715981532
 30
0.0
 11
-0.686834259152
 21
17.65715981532
 31
0.0
1001
TCAD
1000
TCW_CUSTOM_DATA
1002
{
1000
#$AUX@_ToolInfo Properties
1070
           8
1000
Insert^JLine^JPerpendicular@Line Perpendicular
1002
}
  0
LINE
  5
3A
100
AcDbEntity
  8
Exterior View
370
           0
  6
Continuous
 62
           7
100
AcDbLine
 10
0.697206386044
 20
16.72015981532
 30
0.0
 11
-0.697206386045
 21
16.72015981532
 31
0.0
1001
TCAD
1000
TCW_CUSTOM_DATA
1002
{
1000
#$AUX@_ToolInfo Properties
1070
           8
1000
Insert^JLine^JPerpendicular@Line Perpendicular
1002
}
  0
LINE
  5
3B
100
AcDbEntity
  8
Exterior View
370
           0
  6
Continuous
 62
           7
100
AcDbLine
 10
0.706991829132
 20
15.83615981532
 30
0.0
 11
-0.706991829133
 21
15.83615981532
 31
0.0
1001
TCAD
1000
TCW_CUSTOM_DATA
1002
{
1000
#$AUX@_ToolInfo Properties
1070
           8
1000
Insert^JLine^JPerpendicular@Line Perpendicular
1002
}
  0
LINE
  5
3C
100
AcDbEntity
  8
Exterior View
370
           0
  6
Continuous
 62
           7
100
AcDbLine
 10
0.716223796932
 20
15.00215981532
 30
0.0
 11
-0.716223796933
 21
15.00215981532
 31
0.0
1001
TCAD
1000
TCW_CUSTOM_DATA
1002
{
1000
#$AUX@_ToolInfo Properties
1070
           8
1000
Insert^JLine^JPerpendicular@Line Perpendicular
1002
}
  0
LINE
  5
3D
100
AcDbEntity
  8
Exterior View
370
           0
  6
Continuous
 62
           7
100
AcDbLine
 10
0.724935497962
 20
14.21515981532
 30
0.0
 11
-0.724935497963
 21
14.21515981532
 31
0.0
1001
TCAD
1000
TCW_CUSTOM_DATA
1002
{
1000
#$AUX@_ToolInfo Properties
1070
           8
1000
Insert^JLine^JPerpendicular@Line Perpendicular
1002
}
  0
LINE
  5
3E
100
AcDbEntity
  8
Exterior View
370
           0
  6
Continuous
 62
           7
100
AcDbLine
 10
0.733160140738
 20
13.47215981532
 30
0.0
 11
-0.733160140739
 21
13.47215981532
 31
0.0
1001
TCAD
1000
TCW_CUSTOM_DATA
1002
{
1000
#$AUX@_ToolInfo Properties
1070
           8
1000
Insert^JLine^JPerpendicular@Line Perpendicular
1002
}
  0
LINE
  5
3F
100
AcDbEntity
  8
Exterior View
370
           0
  6
Continuous
 62
           7
100
AcDbLine
 10
0.740930933779
 20
12.77015981532
 30
0.0
 11
-0.74093093378
 21
12.77015981532
 31
0.0
1001
TCAD
1000
TCW_CUSTOM_DATA
1002
{
1000
#$AUX@_ToolInfo Properties
1070
           8
1000
Insert^JLine^JPerpendicular@Line Perpendicular
1002
}
  0
LINE
  5
40
100
AcDbEntity
  8
Exterior View
370
           0
  6
Continuous
 62
           7
100
AcDbLine
 10
0.748258946589
 20
12.10815981532
 30
0.0
 11
-0.74825894659
 21
12.10815981532
 31
0.0
1001
TCAD
1000
TCW_CUSTOM_DATA
1002
{
1000
#$AUX@_ToolInfo Properties
1070
           8
1000
Insert^JLine^JPerpendicular@Line Perpendicular
1002
}
  0
LINE
  5
41
100
AcDbEntity
  8
Exterior View
370
           0
  6
Continuous
 62
           7
100
AcDbLine
 10
0.755177387686
 20
11.48315981532
 30
0.0
 11
-0.755177387687
 21
11.48315981532
 31
0.0
1001
TCAD
1000
TCW_CUSTOM_DATA
1002
{
1000
#$AUX@_ToolInfo Properties
1070
           8
1000
Insert^JLine^JPerpendicular@Line Perpendicular
1002
}
  0
LINE
  5
42
100
AcDbEntity
  8
Exterior View
370
           0
  6
Continuous
 62
           7
100
AcDbLine
 10
0.761708396082
 20
10.89315981532
 30
0.0
 11
-0.761708396083
 21
10.89315981532
 31
0.0
1001
TCAD
1000
TCW_CUSTOM_DATA
1002
{
1000
#$AUX@_ToolInfo Properties
1070
           8
1000
Insert^JLine^JPerpendicular@Line Perpendicular
1002
}
  0
LINE
  5
43
100
AcDbEntity
  8
Exterior View
370
           0
  6
Continuous
 62
           7
100
AcDbLine
 10
0.767874110788
 20
10.33615981532
 30
0.0
 11
-0.767874110789
 21
10.33615981532
 31
0.0
1001
TCAD
1000
TCW_CUSTOM_DATA
1002
{
1000
#$AUX@_ToolInfo Properties
1070
           8
1000
Insert^JLine^JPerpendicular@Line Perpendicular
1002
}
  0
LINE
  5
44
100
AcDbEntity
  8
Exterior View
370
           0
  6
Continuous
 62
           7
100
AcDbLine
 10
0.77368560131
 20
9.81115981532
 30
0.0
 11
-0.773685601311
 21
9.81115981532
 31
0.0
1001
TCAD
1000
TCW_CUSTOM_DATA
1002
{
1000
#$AUX@_ToolInfo Properties
1070
           8
1000
Insert^JLine^JPerpendicular@Line Perpendicular
1002
}
  0
LINE
  5
45
100
AcDbEntity
  8
Exterior View
370
           0
  6
Continuous
 62
           7
100
AcDbLine
 10
0.779176076165
 20
9.31515981532
 30
0.0
 11
-0.779176076166
 21
9.31515981532
 31
0.0
1001
TCAD
1000
TCW_CUSTOM_DATA
1002
{
1000
#$AUX@_ToolInfo Properties
1070
           8
1000
Insert^JLine^JPerpendicular@Line Perpendicular
1002
}
  0
LINE
  5
46
100
AcDbEntity
  8
Exterior View
370
           0
  6
Continuous
 62
           7
100
AcDbLine
 10
0.784356604859
 20
8.84715981532
 30
0.0
 11
-0.783717696453
 21
8.84715981532
 31
0.0
1001
TCAD
1000
TCW_CUSTOM_DATA
1002
{
1000
#$AUX@_ToolInfo Properties
1070
           8
1000
Insert^JLine^JPerpendicular@Line Perpendicular
1002
}
  0
LINE
  5
47
100
AcDbEntity
  8
Exterior View
370
           0
  6
Continuous
 62
           7
100
AcDbLine
 10
0.789249326403
 20
8.40515981532
 30
0.0
 11
-0.789249326403
 21
8.40515981532
 31
0.0
1001
TCAD
1000
TCW_CUSTOM_DATA
1002
{
1000
#$AUX@_ToolInfo Properties
1070
           8
1000
Insert^JLine^JPerpendicular@Line Perpendicular
1002
}
  0
LINE
  5
48
100
AcDbEntity
  8
Exterior View
370
           0
  6
Continuous
 62
           7
100
AcDbLine
 10
0.793865310303
 20
7.98815981532
 30
0.0
 11
-0.793865310303
 21
7.98815981532
 31
0.0
1001
TCAD
1000
TCW_CUSTOM_DATA
1002
{
1000
#$AUX@_ToolInfo Properties
1070
           8
1000
Insert^JLine^JPerpendicular@Line Perpendicular
1002
}
  0
LINE
  5
49
100
AcDbEntity
  8
Exterior View
370
           0
  6
Continuous
 62
           7
100
AcDbLine
 10
0.798226695571
 20
7.59415981532
 30
0.0
 11
-0.798226695571
 21
7.59415981532
 31
0.0
1001
TCAD
1000
TCW_CUSTOM_DATA
1002
{
1000
#$AUX@_ToolInfo Properties
1070
           8
1000
Insert^JLine^JPerpendicular@Line Perpendicular
1002
}
  0
LINE
  5
4A
100
AcDbEntity
  8
Exterior View
370
           0
  6
Continuous
 62
           7
100
AcDbLine
 10
0.802344551712
 20
7.22215981532
 30
0.0
 11
-0.802344551712
 21
7.22215981532
 31
0.0
1001
TCAD
1000
TCW_CUSTOM_DATA
1002
{
1000
#$AUX@_ToolInfo Properties
1070
           8
1000
Insert^JLine^JPerpendicular@Line Perpendicular
1002
}
  0
LINE
  5
4B
100
AcDbEntity
  8
Exterior View
370
           0
  6
Continuous
 62
           7
100
AcDbLine
 10
-0.625000000001
 20
23.24315981532
 30
0.0
 11
0.624999999999
 21
23.24315981532
 31
0.0
1001
TCAD
1000
TCW_CUSTOM_DATA
1002
{
1000
#$AUX@_ToolInfo Properties
1070
           8
1000
Insert^JLine^JSingle@Line Single
1002
}
  0
LINE
  5
4C
100
AcDbEntity
  8
Exterior View
370
           0
  6
Continuous
 62
           7
100
AcDbLine
 10
-0.625000000001
 20
23.430668802084
 30
0.0
 11
-0.625000000001
 21
23.24315981532
 31
0.0
1001
TCAD
1000
TCW_CUSTOM_DATA
1002
{
1000
#$AUX@_ToolInfo Properties
1070
           8
1000
Insert^JLine^JPerpendicular@Line Perpendicular
1002
}
  0
LINE
  5
4D
100
AcDbEntity
  8
Exterior View
370
           0
  6
Continuous
 62
           7
100
AcDbLine
 10
0.624999999999
 20
23.430668802084
 30
0.0
 11
0.624999999999
 21
23.24315981532
 31
0.0
1001
TCAD
1000
TCW_CUSTOM_DATA
1002
{
1000
#$AUX@_ToolInfo Properties
1070
           8
1000
Insert^JLine^JPerpendicular@Line Perpendicular
1002
}
  0
ELLIPSE
  5
4E
100
AcDbEntity
  8
Exterior View
370
           0
  6
Continuous
 62
           7
100
AcDbEllipse
 10
0.00031945591
 20
14.324893832553
 30
0.0
 11
0.0000000000000011
 21
-18.086916760478076
 31
0.0
210
0.0
220
0.0
230
1.0
 40
0.882233592144
 41
0.0
 42
0.1924671979090304
  0
ELLIPSE
  5
4F
100
AcDbEntity
  8
Exterior View
370
           0
  6
Continuous
 62
           7
100
AcDbEllipse
 10
2.473694120848
 20
-0.061115313273
 30
0.0
 11
0.0000000000000002
 21
-3.4302773166423925
 31
0.0
210
0.0
220
0.0
230
1.0
 40
0.882233592144
 41
0.1924671151278947
 42
1.5707963267948966
  0
ELLIPSE
  5
50
100
AcDbEntity
  8
Exterior View
370
           0
  6
Continuous
 62
           7
100
AcDbEllipse
 10
-0.261664248436
 20
7.866904885286
 30
0.0
 11
4.7772811043073808
 21
0.0
 31
0.0
210
0.0
220
0.0
230
1.0
 40
0.880391474347
 41
-0.4404630277005605
 42
0.0
  0
ELLIPSE
  5
51
100
AcDbEntity
  8
Exterior View
370
           0
  6
Continuous
 62
           7
100
AcDbEllipse
 10
7.805519058454
 20
4.817527002346
 30
0.0
 11
4.055519058450372
 21
0.0
 31
0.0
210
0.0
220
0.0
230
1.0
 40
0.808217900441
 41
2.7482895440411816
 42
3.1415926535897238
  0
ELLIPSE
  5
52
100
AcDbEntity
  8
Exterior View
370
           0
  6
Continuous
 62
           7
100
AcDbEllipse
 10
7.154957868282
 20
4.81752700244
 30
0.0
 11
3.404957868316842
 21
0.0
 31
0.0
210
0.0
220
0.0
230
1.0
 40
0.961410681296
 41
3.1415926535897931
 42
3.7185394285396707
  0
ELLIPSE
  5
53
100
AcDbEntity
  8
Exterior View
370
           0
  6
Continuous
 62
           7
100
AcDbEllipse
 10
-9.948517138444
 20
5.494590189771
 30
0.0
 11
6.198517138366455
 21
0.0
 31
0.0
210
0.0
220
0.0
230
1.0
 40
0.808382871566
 41
0.0
 42
0.2713086312206309
  0
ARC
  5
54
100
AcDbEntity
  8
Exterior View
370
           0
  6
Continuous
 62
           7
100
AcDbCircle
 10
-3.383998762669
 20
11.881199306666
 30
0.0
 40
0.241507221075
100
AcDbArc
 50
-16.444149882684
 51
119.298600075702
  0
ELLIPSE
  5
55
100
AcDbEntity
  8
Exterior View
370
           0
  6
Continuous
 62
           7
100
AcDbEllipse
 10
2.847907157313
 20
7.865608459914
 30
0.0
 11
0.0000000000000001
 21
-1.8375884376428278
 31
0.0
210
0.0
220
0.0
230
1.0
 40
0.907553660784
 41
1.5715018305153285
 42
2.3272263511173628
  0
ARC
  5
56
100
AcDbEntity
  8
Exterior View
370
           0
  6
Continuous
 62
           7
100
AcDbCircle
 10
3.885287416435
 20
8.960923120266
 30
0.0
 40
0.241507221074
100
AcDbArc
 50
43.380326715596
 51
186.349186863838
  0
ELLIPSE
  5
57
100
AcDbEntity
  8
Exterior View
370
           0
  6
Continuous
 62
           7
100
AcDbEllipse
 10
0.000319853783
 20
14.324893832553
 30
0.0
 11
0.0000000000000011
 21
-18.086916760478061
 31
0.0
210
0.0
220
0.0
230
1.0
 40
0.882336079398
 41
-0.1924672310555267
 42
0.0
  0
ELLIPSE
  5
58
100
AcDbEntity
  8
Exterior View
370
           0
  6
Continuous
 62
           7
100
AcDbEllipse
 10
8.13427926274
 20
-1.415788598538
 30
0.0
 11
13.761243216254766
 21
0.0
 31
0.0
210
0.0
220
0.0
230
1.0
 40
0.827620341305
 41
2.6990790559152358
 42
2.9868927181465668
  0
ELLIPSE
  5
59
100
AcDbEntity
  8
Exterior View
370
           0
  6
Continuous
 62
           7
100
AcDbEllipse
 10
-2.473342561187
 20
-0.061115234712
 30
0.0
 11
0.0000000000000002
 21
-3.4302773166424125
 31
0.0
210
0.0
220
0.0
230
1.0
 40
0.882336079398
 41
4.7123889523626357
 42
6.0907181589051937
  0
ELLIPSE
  5
5A
100
AcDbEntity
  8
Exterior View
370
           0
  6
Continuous
 62
           7
100
AcDbEllipse
 10
-7.156823986203
 20
5.494590309119
 30
0.0
 11
0.0000000000000002
 21
-3.7278713409130013
 31
0.0
210
0.0
220
0.0
230
1.0
 40
0.913879175157
 41
0.9938495206784052
 42
1.5707963267948966
  0
ELLIPSE
  5
5B
100
AcDbEntity
  8
Exterior View
370
           0
  6
Continuous
 62
           7
100
AcDbEllipse
 10
-1.649928970862
 20
10.537078466731
 30
0.0
 11
0.0000000000000001
 21
-2.0558093533980188
 31
0.0
210
0.0
220
0.0
230
1.0
 40
0.787275168877
 41
-1.5182817389676071
 42
-0.0276713843287322
  0
ELLIPSE
  5
5C
100
AcDbEntity
  8
Exterior View
370
           0
  6
Continuous
 62
           7
100
AcDbEllipse
 10
-0.267780691735
 20
10.648170978367
 30
0.0
 11
0.0000000000000003
 21
-4.17225410285306
 31
0.0
210
0.0
220
0.0
230
1.0
 40
0.719994804015
 41
4.4294857670567431
 42
4.764903415488849
  0
ELLIPSE
  5
5D
100
AcDbEntity
  8
Exterior View
370
           0
  6
Continuous
 62
           7
100
AcDbEllipse
 10
1.875
 20
8.353594582494
 30
0.0
 11
0.0000000000000001
 21
-1.7527940390941126
 31
0.0
210
0.0
220
0.0
230
1.0
 40
0.801842865077
 41
0.0
 42
0.4278953830802537
  0
ELLIPSE
  5
5E
100
AcDbEntity
  8
Exterior View
370
           0
  6
Continuous
 62
           7
100
AcDbEllipse
 10
1.353406780116
 20
8.700824486572
 30
0.0
 11
2.3025498328387908
 21
0.0
 31
0.0
210
0.0
220
0.0
230
1.0
 40
0.961294668452
 41
-1.0703511114834496
 42
0.1056395368018374
1001
TCAD
1000
TCW_CUSTOM_DATA
1002
{
1000
#$AUX@_ToolInfo Properties
1070
           8
1000
Insert^JArc^JTriplePoint132@Arc TriplePoint132
1002
}
  0
LINE
  5
5F
100
AcDbEntity
  8
Exterior View
370
           0
  6
Continuous
 62
           7
100
AcDbLine
 10
8.542908176053
 20
0.000000000012
 30
-0.000000130642
 11
8.042908176053
 21
0.000000000012
 31
-0.000000130642
1001
TCAD
1000
TCW_CUSTOM_DATA
1002
{
1000
#$AUX@_ToolInfo Properties
1070
           8
1000
Insert^JLine^JPerpendicular@Line Perpendicular
1002
}
  0
LINE
  5
60
100
AcDbEntity
  8
Exterior View
370
           0
  6
Continuous
 62
           7
100
AcDbLine
 10
8.042908176053
 20
0.000000000012
 30
-0.000000130642
 11
8.042908176053
 21
0.065000000012
 31
-0.000000130642
1001
TCAD
1000
TCW_CUSTOM_DATA
1002
{
1000
#$AUX@_ToolInfo Properties
1070
           8
1000
Insert^JLine^JPerpendicular@Line Perpendicular
1002
}
  0
LINE
  5
61
100
AcDbEntity
  8
Exterior View
370
           0
  6
Continuous
 62
           7
100
AcDbLine
 10
8.477908176053
 20
1.375000000012
 30
-0.000000130642
 11
8.477908176053
 21
0.065000000012
 31
-0.000000130642
1001
TCAD
1000
TCW_CUSTOM_DATA
1002
{
1000
#$AUX@_ToolInfo Properties
1070
           8
1000
Insert^JLine^JPerpendicular@Line Perpendicular
1002
}
  0
LINE
  5
62
100
AcDbEntity
  8
Exterior View
370
           0
  6
Continuous
 62
           7
100
AcDbLine
 10
8.477908176053
 20
0.065000000012
 30
-0.000000130642
 11
8.042908176053
 21
0.065000000012
 31
-0.000000130642
1001
TCAD
1000
TCW_CUSTOM_DATA
1002
{
1000
#$AUX@_ToolInfo Properties
1070
           8
1000
Insert^JLine^JPerpendicular@Line Perpendicular
1002
}
  0
LINE
  5
63
100
AcDbEntity
  8
Exterior View
370
           0
  6
Continuous
 62
           7
100
AcDbLine
 10
8.542908176053
 20
1.375000000012
 30
-0.000000130642
 11
8.477908176053
 21
1.375000000012
 31
-0.000000130642
1001
TCAD
1000
TCW_CUSTOM_DATA
1002
{
1000
#$AUX@_ToolInfo Properties
1070
           8
1000
Insert^JLine^JPerpendicular@Line Perpendicular
1002
}
  0
LINE
  5
64
100
AcDbEntity
  8
Exterior View
370
           0
  6
Continuous
 62
           7
100
AcDbLine
 10
8.135408176053
 20
0.97315981532
 30
-0.000000130642
 11
8.447908176053
 21
0.97315981532
 31
-0.000000130642
1001
TCAD
1000
TCW_CUSTOM_DATA
1002
{
1000
#$AUX@_ToolInfo Properties
1070
           8
1000
Insert^JLine^JPerpendicular@Line Perpendicular
1002
}
  0
LINE
  5
65
100
AcDbEntity
  8
Exterior View
370
           0
  6
Continuous
 62
           7
100
AcDbLine
 10
8.135408176053
 20
0.97315981532
 30
-0.000000130642
 11
8.135408176053
 21
0.34815981532
 31
-0.000000130642
1001
TCAD
1000
TCW_CUSTOM_DATA
1002
{
1000
#$AUX@_ToolInfo Properties
1070
           8
1000
Insert^JLine^JPerpendicular@Line Perpendicular
1002
}
  0
LINE
  5
66
100
AcDbEntity
  8
Exterior View
370
           0
  6
Continuous
 62
           7
100
AcDbLine
 10
8.135408176053
 20
0.34815981532
 30
-0.000000130642
 11
8.447908176053
 21
0.34815981532
 31
-0.000000130642
1001
TCAD
1000
TCW_CUSTOM_DATA
1002
{
1000
#$AUX@_ToolInfo Properties
1070
           8
1000
Insert^JLine^JPerpendicular@Line Perpendicular
1002
}
  0
LINE
  5
67
100
AcDbEntity
  8
Exterior View
370
           0
  6
Continuous
 62
           7
100
AcDbLine
 10
8.183908176053
 20
23.24315981532
 30
-0.000000130642
 11
8.135408176053
 21
0.97315981532
 31
-0.000000130642
1001
TCAD
1000
TCW_CUSTOM_DATA
1002
{
1000
#$AUX@_ToolInfo Properties
1070
           8
1000
Insert^JLine^JTanFromArc@Line TanFromArc
1002
}
  0
LINE
  5
68
100
AcDbEntity
  8
Exterior View
370
           0
  6
Continuous
 62
           7
100
AcDbLine
 10
8.447908176053
 20
0.97315981532
 30
-0.000000130642
 11
8.447908176053
 21
0.34815981532
 31
-0.000000130642
1001
TCAD
1000
TCW_CUSTOM_DATA
1002
{
1000
#$AUX@_ToolInfo Properties
1070
           8
1000
Insert^JLine^JPerpendicular@Line Perpendicular
1002
}
  0
LINE
  5
69
100
AcDbEntity
  8
Exterior View
370
           0
  6
Continuous
 62
           7
100
AcDbLine
 10
8.542908176053
 20
-3.407187328197
 30
-0.000000130642
 11
10.167908176053
 21
-3.407187328197
 31
-0.000000130642
1001
TCAD
1000
TCW_CUSTOM_DATA
1002
{
1000
#$AUX@_ToolInfo Properties
1070
           8
1000
Insert^JLine^JPerpendicular@Line Perpendicular
1002
}
  0
LINE
  5
6A
100
AcDbEntity
  8
Exterior View
370
           0
  6
Continuous
 62
           7
100
AcDbLine
 10
-1.045508449027
 20
-3.723143028473
 30
0.0
 11
-5.179109586644
 21
1.466124258788
 31
0.0
1001
TCAD
1000
TCW_CUSTOM_DATA
1002
{
1000
#$AUX@_ToolInfo Properties
1070
           8
1000
Insert^JLine^JSingle@Line Single
1002
}
  0
CIRCLE
  5
6B
100
AcDbEntity
  8
Exterior View
370
           0
  6
Continuous
 62
           7
100
AcDbCircle
 10
2.941240685151
 20
0.131269996555
 30
0.0
 40
0.125
1001
TCAD
1000
TCW_CUSTOM_DATA
1002
{
1000
#$AUX@_ToolInfo Properties
1070
           8
1000
Insert^JCircle^JCenterAndPoint@Circle CenterAndPoint
1002
}
  0
LINE
  5
6C
100
AcDbEntity
  8
Hidden
370
           0
  6
HIDDEN
 62
           7
 48
0.20000000298
100
AcDbLine
 10
2.628752579709
 20
0.381284864028
 30
0.0
 11
2.6287287913
 21
-0.118715135406
 31
0.0
1001
TCAD
1000
TCW_CUSTOM_DATA
1002
{
1000
#$AUX@_ToolInfo Properties
1070
           8
1000
Insert^JLine^JPerpendicular@Line Perpendicular
1002
}
  0
LINE
  5
6D
100
AcDbEntity
  8
Hidden
370
           0
  6
HIDDEN
 62
           7
 48
0.20000000298
100
AcDbLine
 10
3.253728790592
 20
-0.118744870918
 30
0.0
 11
3.253752579002
 21
0.381255128516
 31
0.0
1001
TCAD
1000
TCW_CUSTOM_DATA
1002
{
1000
#$AUX@_ToolInfo Properties
1070
           8
1000
Insert^JLine^JPerpendicular@Line Perpendicular
1002
}
  0
LINE
  5
6E
100
AcDbEntity
  8
Hidden
370
           0
  6
HIDDEN
 62
           7
 48
0.20000000298
100
AcDbLine
 10
2.6287287913
 20
-0.118715135406
 30
0.0
 11
3.253728790592
 21
-0.118744870918
 31
0.0
1001
TCAD
1000
TCW_CUSTOM_DATA
1002
{
1000
#$AUX@_ToolInfo Properties
1070
           8
1000
Insert^JLine^JSingle@Line Single
1002
}
  0
LINE
  5
6F
100
AcDbEntity
  8
Hidden
370
           0
  6
HIDDEN
 62
           7
 48
0.20000000298
100
AcDbLine
 10
2.628752579709
 20
0.381284864028
 30
0.0
 11
3.253752579002
 21
0.381255128516
 31
0.0
1001
TCAD
1000
TCW_CUSTOM_DATA
1002
{
1000
#$AUX@_ToolInfo Properties
1070
           8
1000
Insert^JLine^JSingle@Line Single
1002
}
  0
CIRCLE
  5
70
100
AcDbEntity
  8
Exterior View
370
           0
  6
Continuous
 62
           7
100
AcDbCircle
 10
-0.0
 20
10.61465981532
 30
0.0
 40
0.07874015748
1001
TCAD
1000
TCW_CUSTOM_DATA
1002
{
1000
#$AUX@_ToolInfo Properties
1070
           8
1000
Insert^JCircle^JCenterAndPoint@Circle CenterAndPoint
1002
}
  0
CIRCLE
  5
71
100
AcDbEntity
  8
Exterior View
370
           0
  6
Continuous
 62
           7
100
AcDbCircle
 10
-0.0
 20
9.56315981532
 30
0.0
 40
0.07874015748
1001
TCAD
1000
TCW_CUSTOM_DATA
1002
{
1000
#$AUX@_ToolInfo Properties
1070
           8
1000
Insert^JCircle^JCenterAndPoint@Circle CenterAndPoint
1002
}
  0
CIRCLE
  5
72
100
AcDbEntity
  8
Exterior View
370
           0
  6
Continuous
 62
           7
100
AcDbCircle
 10
0.000159727101
 20
8.62615981532
 30
0.0
 40
0.07874015748
1001
TCAD
1000
TCW_CUSTOM_DATA
1002
{
1000
#$AUX@_ToolInfo Properties
1070
           8
1000
Insert^JCircle^JCenterAndPoint@Circle CenterAndPoint
1002
}
  0
CIRCLE
  5
73
100
AcDbEntity
  8
Exterior View
370
           0
  6
Continuous
 62
           7
100
AcDbCircle
 10
-0.0
 20
7.40815981532
 30
0.0
 40
0.07874015748
1001
TCAD
1000
TCW_CUSTOM_DATA
1002
{
1000
#$AUX@_ToolInfo Properties
1070
           8
1000
Insert^JCircle^JCenterAndPoint@Circle CenterAndPoint
1002
}
  0
CIRCLE
  5
74
100
AcDbEntity
  8
Exterior View
370
           0
  6
Continuous
 62
           7
100
AcDbCircle
 10
-0.000000000001
 20
13.84365981532
 30
0.0
 40
0.07874015748
1001
TCAD
1000
TCW_CUSTOM_DATA
1002
{
1000
#$AUX@_ToolInfo Properties
1070
           8
1000
Insert^JCircle^JCenterAndPoint@Circle CenterAndPoint
1002
}
  0
CIRCLE
  5
75
100
AcDbEntity
  8
Exterior View
370
           0
  6
Continuous
 62
           7
100
AcDbCircle
 10
-0.000000000001
 20
16.27815981532
 30
0.0
 40
0.07874015748
1001
TCAD
1000
TCW_CUSTOM_DATA
1002
{
1000
#$AUX@_ToolInfo Properties
1070
           8
1000
Insert^JCircle^JCenterAndPoint@Circle CenterAndPoint
1002
}
  0
CIRCLE
  5
76
100
AcDbEntity
  8
Exterior View
370
           0
  6
Continuous
 62
           7
100
AcDbCircle
 10
-0.000000000001
 20
18.15315981532
 30
0.0
 40
0.07874015748
1001
TCAD
1000
TCW_CUSTOM_DATA
1002
{
1000
#$AUX@_ToolInfo Properties
1070
           8
1000
Insert^JCircle^JCenterAndPoint@Circle CenterAndPoint
1002
}
  0
CIRCLE
  5
77
100
AcDbEntity
  8
Exterior View
370
           0
  6
Continuous
 62
           7
100
AcDbCircle
 10
-0.000000000001
 20
20.25665981532
 30
0.0
 40
0.07874015748
1001
TCAD
1000
TCW_CUSTOM_DATA
1002
{
1000
#$AUX@_ToolInfo Properties
1070
           8
1000
Insert^JCircle^JCenterAndPoint@Circle CenterAndPoint
1002
}
  0
CIRCLE
  5
78
100
AcDbEntity
  8
Exterior View
370
           0
  6
Continuous
 62
           7
100
AcDbCircle
 10
-0.372297470112
 20
12.439159815369
 30
-0.000000235132
 40
0.07874015748
1001
TCAD
1000
TCW_CUSTOM_DATA
1002
{
1000
#$AUX@_ToolInfo Properties
1070
           8
1000
Insert^JCircle^JCenterAndPoint@Circle CenterAndPoint
1002
}
  0
CIRCLE
  5
79
100
AcDbEntity
  8
Exterior View
370
           0
  6
Continuous
 62
           7
100
AcDbCircle
 10
0.372297470073
 20
12.439159815325
 30
-0.000000235132
 40
0.07874015748
1001
TCAD
1000
TCW_CUSTOM_DATA
1002
{
1000
#$AUX@_ToolInfo Properties
1070
           8
1000
Insert^JCircle^JCenterAndPoint@Circle CenterAndPoint
1002
}
  0
ARC
  5
7A
100
AcDbEntity
  8
Exterior View
370
           0
  6
Continuous
 62
           7
100
AcDbCircle
 10
-3.333470364164
 20
-0.061608086201
 30
0.0
 40
2.166529691915
100
AcDbArc
 50
169.308499120574
 51
180.045848797911
1001
TCAD
1000
TCW_CUSTOM_DATA
1002
{
1000
#$AUX@_ToolInfo Properties
1070
           8
1000
Insert^JArc^JTanToEntities@Arc TanToEntities
1002
}
  0
ELLIPSE
  5
7B
100
AcDbEntity
  8
Exterior View
370
           0
  6
Continuous
 62
           7
100
AcDbEllipse
 10
-8.140807434487
 20
-1.174512143976
 30
0.0
 11
13.768133082685859
 21
0.0
 31
0.0
210
0.0
220
0.0
230
1.0
 40
0.713473958579
 41
0.1546999494419162
 42
0.4425136109639666
  0
ELLIPSE
  5
7C
100
AcDbEntity
  8
Exterior View
370
           0
  6
Continuous
 62
           7
100
AcDbEllipse
 10
3.349666119742
 20
-0.06160804729
 30
0.0
 11
0.0000000000000001
 21
-2.1665296919150285
 31
0.0
210
0.0
220
0.0
230
1.0
 40
0.992524563628
 41
1.5699961259861799
 42
1.7573982307936575
1001
TCAD
1000
TCW_CUSTOM_DATA
1002
{
1000
#$AUX@_ToolInfo Properties
1070
           8
1000
Insert^JArc^JTanToEntities@Arc TanToEntities
1002
}
  0
LINE
  5
7D
100
AcDbEntity
  8
Exterior View
370
           0
  6
Continuous
 62
           7
100
AcDbLine
 10
8.542908176053
 20
9.20243034139
 30
0.0
 11
10.167908176022
 21
9.20243034139
 31
0.0
1001
TCAD
1000
TCW_CUSTOM_DATA
1002
{
1000
#$AUX@_ToolInfo Properties
1070
           8
1000
Insert^JLine^JSingle@Line Single
1002
}
  0
LINE
  5
7E
100
AcDbEntity
  8
Exterior View
370
           0
  6
Continuous
 62
           7
100
AcDbLine
 10
9.060408176053
 20
12.12270652779
 30
0.0
 11
10.167908176014
 21
12.12270652779
 31
0.0
1001
TCAD
1000
TCW_CUSTOM_DATA
1002
{
1000
#$AUX@_ToolInfo Properties
1070
           8
1000
Insert^JLine^JSingle@Line Single
1002
}
  0
ARC
  5
7F
100
AcDbEntity
  8
Exterior View
370
           0
  6
Continuous
 62
           7
100
AcDbCircle
 10
-0.96258549743
 20
9.781238754421
 30
0.0
 40
3.584895564371
100
AcDbArc
 50
151.855123215009
 51
187.214271746965
  0
ELLIPSE
  5
80
100
AcDbEntity
  8
Exterior View
370
           0
  6
Continuous
 62
           7
100
AcDbEllipse
 10
7.765044390154
 20
10.918577827937
 30
0.0
 11
0.0000000000000008
 21
-12.892321444143679
 31
0.0
210
0.0
220
0.0
230
1.0
 40
0.960133507021
 41
-1.4473452406050193
 42
-1.2487000784933837
  0
ARC
  5
81
100
AcDbEntity
  8
Exterior View
370
           0
  6
Continuous
 62
           7
100
AcDbCircle
 10
-2.704585826453
 20
10.670430376917
 30
0.0
 40
1.629874369614
100
AcDbArc
 50
119.298599832239
 51
150.53131288321
  0
LINE
  5
82
100
AcDbEntity
  8
Exterior View
370
           0
  6
Continuous
 62
           7
100
AcDbLine
 10
8.256817958222
 20
2.827500000012
 30
-0.000000130632
 11
8.256817958222
 21
2.13999999997
 31
-0.000000130632
1001
TCAD
1000
TCW_CUSTOM_DATA
1002
{
1000
#$AUX@_ToolInfo Properties
1070
           8
1000
Insert^JLine^JPerpendicular@Line Perpendicular
1002
}
  0
LINE
  5
83
100
AcDbEntity
  8
Exterior View
370
           0
  6
Continuous
 62
           7
100
AcDbLine
 10
8.278755111272
 20
6.269409815319
 30
-0.000000130632
 11
8.278755111272
 21
5.581909815319
 31
-0.000000130632
1001
TCAD
1000
TCW_CUSTOM_DATA
1002
{
1000
#$AUX@_ToolInfo Properties
1070
           8
1000
Insert^JLine^JPerpendicular@Line Perpendicular
1002
}
  0
ELLIPSE
  5
84
100
AcDbEntity
  8
Exterior View
370
           0
  6
Continuous
 62
           7
100
AcDbEllipse
 10
1.985387381042
 20
7.599719148536
 30
0.0
 11
1.2770393985141382
 21
0.0
 31
0.0
210
0.0
220
0.0
230
1.0
 40
0.78515318625
 41
-2.5626176048837706
 42
-1.657344410155841
  0
LINE
  5
85
100
AcDbEntity
  8
Exterior View
370
           0
  6
Continuous
 62
           7
100
AcDbLine
 10
9.691661285503
 20
9.405537841562
 30
0.0
 11
9.167908176045
 21
9.405537841598
 31
0.0
1001
TCAD
1000
TCW_CUSTOM_DATA
1002
{
1000
#$AUX@_ToolInfo Properties
1070
           8
1000
Insert^JLine^JSingle@Line Single
1002
}
  0
LINE
  5
86
100
AcDbEntity
  8
Hidden
370
           0
  6
HIDDEN
 62
           7
 48
0.20000000298
100
AcDbLine
 10
9.940420584655
 20
9.180413755162
 30
0.0
 11
10.167908176027
 21
6.905537841589
 31
0.0
  0
CIRCLE
  5
87
100
AcDbEntity
  8
Exterior View
370
           0
  6
Continuous
 62
           7
 48
0.20000000298
100
AcDbCircle
 10
4.27235928003
 20
-0.404922495231
 30
0.0
 40
0.250000000013
1001
TCAD
1000
TCW_CUSTOM_DATA
1002
{
1000
#$AUX@_ToolInfo Properties
1070
           8
1000
Insert^JCircle^JCenterAndPoint@Circle CenterAndPoint
1002
}
  0
CIRCLE
  5
88
100
AcDbEntity
  8
Hidden
370
           0
 62
           7
 48
0.20000000298
100
AcDbCircle
 10
4.27235928003
 20
-0.404922495231
 30
0.0
 40
0.468656255055
1001
TCAD
1000
TCW_CUSTOM_DATA
1002
{
1000
#$AUX@_ToolInfo Properties
1070
           8
1000
Insert^JCircle^JCenterAndPoint@Circle CenterAndPoint
1002
}
  0
LINE
  5
89
100
AcDbEntity
  8
Hidden
370
           0
 62
           7
 48
0.20000000298
100
AcDbLine
 10
4.647260254592
 20
0.376182796891
 30
0.0
 11
4.647275633347
 21
-0.123717208264
 31
0.0
1001
TCAD
1000
TCW_CUSTOM_DATA
1002
{
1000
#$AUX@_ToolInfo Properties
1070
           8
1000
Insert^JLine^JPerpendicular@Line Perpendicular
1002
}
  0
LINE
  5
8A
100
AcDbEntity
  8
Hidden
370
           0
 62
           7
 48
0.20000000298
100
AcDbLine
 10
3.897410246858
 20
0.376159728758
 30
0.0
 11
3.897425625613
 21
-0.123740276397
 31
0.0
1001
TCAD
1000
TCW_CUSTOM_DATA
1002
{
1000
#$AUX@_ToolInfo Properties
1070
           8
1000
Insert^JLine^JPerpendicular@Line Perpendicular
1002
}
  0
LINE
  5
8B
100
AcDbEntity
  8
Hidden
370
           0
 62
           7
 48
0.20000000298
100
AcDbLine
 10
4.647260254592
 20
0.376182796891
 30
0.0
 11
3.897410246858
 21
0.376159728758
 31
0.0
1001
TCAD
1000
TCW_CUSTOM_DATA
1002
{
1000
#$AUX@_ToolInfo Properties
1070
           8
1000
Insert^JLine^JPerpendicular@Line Perpendicular
1002
}
  0
CIRCLE
  5
8C
100
AcDbEntity
  8
Exterior View
370
           0
  6
Continuous
 62
           7
100
AcDbCircle
 10
2.605681959368
 20
-2.328703885081
 30
0.0
 40
0.125
1001
TCAD
1000
TCW_CUSTOM_DATA
1002
{
1000
#$AUX@_ToolInfo Properties
1070
           8
1000
Insert^JCircle^JCenterAndPoint@Circle CenterAndPoint
1002
}
  0
CIRCLE
  5
8D
100
AcDbEntity
  8
Exterior View
370
           0
  6
Continuous
 62
           7
100
AcDbCircle
 10
2.605681959368
 20
-2.328703885081
 30
0.0
 40
0.1875
1001
TCAD
1000
TCW_CUSTOM_DATA
1002
{
1000
#$AUX@_ToolInfo Properties
1070
           8
1000
Insert^JCircle^JCenterAndPoint@Circle CenterAndPoint
1002
}
  0
CIRCLE
  5
8E
100
AcDbEntity
  8
Hidden
370
           0
  6
HIDDEN
 62
           7
 48
0.20000000298
100
AcDbCircle
 10
2.605681959368
 20
-2.328703885081
 30
0.0
 40
0.4375
1001
TCAD
1000
TCW_CUSTOM_DATA
1002
{
1000
#$AUX@_ToolInfo Properties
1070
           8
1000
Insert^JCircle^JCenterAndPoint@Circle CenterAndPoint
1002
}
  0
CIRCLE
  5
8F
100
AcDbEntity
  8
Hidden
370
           0
 62
           7
 48
0.20000000298
100
AcDbCircle
 10
2.605681959368
 20
1.608796114919
 30
0.0
 40
0.46865625503
1001
TCAD
1000
TCW_CUSTOM_DATA
1002
{
1000
#$AUX@_ToolInfo Properties
1070
           8
1000
Insert^JCircle^JCenterAndPoint@Circle CenterAndPoint
1002
}
  0
LINE
  5
90
100
AcDbEntity
  8
Hidden
370
           0
 62
           7
 48
0.20000000298
100
AcDbLine
 10
3.423122700694
 20
1.32162569087
 30
0.0
 11
3.069625203798
 21
1.675093560771
 31
0.0
1001
TCAD
1000
TCW_CUSTOM_DATA
1002
{
1000
#$AUX@_ToolInfo Properties
1070
           8
1000
Insert^JLine^JPerpendicular@Line Perpendicular
1002
}
  0
LINE
  5
91
100
AcDbEntity
  8
Hidden
370
           0
 62
           7
 48
0.20000000298
100
AcDbLine
 10
2.892920895842
 20
0.791379445526
 30
0.0
 11
2.539423398946
 21
1.144847315427
 31
0.0
1001
TCAD
1000
TCW_CUSTOM_DATA
1002
{
1000
#$AUX@_ToolInfo Properties
1070
           8
1000
Insert^JLine^JPerpendicular@Line Perpendicular
1002
}
  0
CIRCLE
  5
92
100
AcDbEntity
  8
Exterior View
370
           0
  6
Continuous
 62
           7
 48
0.20000000298
100
AcDbCircle
 10
2.605681959368
 20
1.608796114919
 30
0.0
 40
0.25
1001
TCAD
1000
TCW_CUSTOM_DATA
1002
{
1000
#$AUX@_ToolInfo Properties
1070
           8
1000
Insert^JCircle^JCenterAndPoint@Circle CenterAndPoint
1002
}
  0
LINE
  5
93
100
AcDbEntity
  8
Hidden
370
           0
  6
HIDDEN
 62
           7
 48
0.20000000298
100
AcDbLine
 10
2.89292089578
 20
0.791379445533
 30
0.0
 11
3.423122700632
 21
1.321625690877
 31
0.0
1001
TCAD
1000
TCW_CUSTOM_DATA
1002
{
1000
#$AUX@_ToolInfo Properties
1070
           8
1000
Insert^JLine^JSingle@Line Single
1002
}
  0
ARC
  5
94
100
AcDbEntity
  8
Hidden
370
           0
  6
HIDDEN
 62
           7
 48
0.20000000298
100
AcDbCircle
 10
2.35813430157
 20
-0.496811095615
 30
0.0
 40
2.512466152563
100
AcDbArc
 50
-76.86721362554
 51
-30.786410656632
1001
TCAD
1000
TCW_CUSTOM_DATA
1002
{
1000
#$AUX@_ToolInfo Properties
1070
           8
1000
Insert^JArc^JTriplePoint132@Arc TriplePoint132
1002
}
  0
LINE
  5
95
100
AcDbEntity
  8
Hidden
370
           0
  6
HIDDEN
 62
           7
 48
0.20000000298
100
AcDbLine
 10
1.980681959368
 20
1.388035689403
 30
0.0
 11
1.980681959368
 21
1.608795967923
 31
0.0
  0
LINE
  5
96
100
AcDbEntity
  8
Hidden
370
           0
  6
HIDDEN
 62
           7
 48
0.20000000298
100
AcDbLine
 10
1.855681959368
 20
1.621606466946
 30
0.0
 11
1.855681959368
 21
-2.091313527742
 31
0.0
1001
TCAD
1000
TCW_CUSTOM_DATA
1002
{
1000
#$AUX@_ToolInfo Properties
1070
           8
1000
Insert^JLine^JSingle@Line Single
1002
}
  0
ARC
  5
97
100
AcDbEntity
  8
Hidden
370
           0
  6
HIDDEN
 62
           7
 48
0.20000000298
100
AcDbCircle
 10
1.763024982131
 20
-0.080801345803
 30
0.0
 40
3.112026405255
100
AcDbArc
 50
-10.128611590659
 51
0.330660582578
  0
ELLIPSE
  5
98
100
AcDbEntity
  8
Hidden
370
           0
  6
HIDDEN
 62
           7
 48
0.20000000298
100
AcDbEllipse
 10
2.313811133261
 20
-0.087478026956
 30
0.0
 11
0.0000000000000002
 21
-2.9618699306166336
 31
0.0
210
0.0
220
0.0
230
1.0
 40
0.906960226744
 41
0.9613923916555709
 42
1.5790805197457698
1001
TCAD
1000
TCW_CUSTOM_DATA
1002
{
1000
#$AUX@_ToolInfo Properties
1070
           8
1000
Insert^JArc^JTriplePoint132@Arc TriplePoint132
1002
}
  0
ARC
  5
99
100
AcDbEntity
  8
Hidden
370
           0
  6
HIDDEN
 62
           7
 48
0.20000000298
100
AcDbCircle
 10
2.304182228173
 20
-0.163723411696
 30
0.0
 40
2.572795933308
100
AcDbArc
 50
2.24719934408
 51
35.522858221978
  0
ARC
  5
9A
100
AcDbEntity
  8
Hidden
370
           0
  6
HIDDEN
 62
           7
 48
0.20000000298
100
AcDbCircle
 10
2.304182228173
 20
-0.163723411696
 30
0.0
 40
2.572795933308
100
AcDbArc
 50
68.817859080228
 51
75.897297735576
  0
ARC
  5
9B
100
AcDbEntity
  8
Hidden
370
           0
  6
HIDDEN
 62
           7
 48
0.20000000298
100
AcDbCircle
 10
2.31971960619
 20
-0.149557166177
 30
0.0
 40
2.681679080219
100
AcDbArc
 50
1.850918468677
 51
77.482486429158
1001
TCAD
1000
TCW_CUSTOM_DATA
1002
{
1000
#$AUX@_ToolInfo Properties
1070
           8
1000
Insert^JArc^JTriplePoint132@Arc TriplePoint132
1002
}
  0
ARC
  5
9C
100
AcDbEntity
  8
Hidden
370
           0
  6
HIDDEN
 62
           7
 48
0.20000000298
100
AcDbCircle
 10
2.730681959368
 20
1.608796114919
 30
0.0
 40
0.75
100
AcDbArc
 50
74.503101024571
 51
180.00001122964
  0
ARC
  5
9D
100
AcDbEntity
  8
Hidden
370
           0
  6
HIDDEN
 62
           7
 48
0.20000000298
100
AcDbCircle
 10
2.730681959368
 20
1.608796114919
 30
0.0
 40
0.875093769329
100
AcDbArc
 50
78.796298469583
 51
180.838773338658
  0
ARC
  5
9E
100
AcDbEntity
  8
Hidden
370
           0
  6
HIDDEN
 62
           7
 48
0.20000000298
100
AcDbCircle
 10
2.730681959368
 20
-2.091313527742
 30
0.0
 40
0.875
100
AcDbArc
 50
180.0
 51
283.098775829248
  0
LINE
  5
9F
100
AcDbEntity
  8
Exterior View
370
           0
  6
Continuous
 62
           7
100
AcDbLine
 10
-0.811839051108
 20
6.364443165191
 30
0.0
 11
-0.625000000001
 21
23.24315981532
 31
0.0
1001
TCAD
1000
TCW_CUSTOM_DATA
1002
{
1000
#$AUX@_ToolInfo Properties
1070
           8
1000
Insert^JLine^JSingle@Line Single
1002
}
  0
LINE
  5
A0
100
AcDbEntity
  8
Exterior View
370
           0
  6
Continuous
 62
           7
100
AcDbLine
 10
0.624999999999
 20
23.24315981532
 30
0.0
 11
0.811839051107
 21
6.364443165191
 31
0.0
1001
TCAD
1000
TCW_CUSTOM_DATA
1002
{
1000
#$AUX@_ToolInfo Properties
1070
           8
1000
Insert^JLine^JSingle@Line Single
1002
}
  0
LINE
  5
A1
100
AcDbEntity
  8
Exterior View
370
           0
  6
Continuous
 62
           7
100
AcDbLine
 10
8.542908176053
 20
-3.407187328197
 30
-0.000000130625
 11
8.542908176053
 21
9.20243034139
 31
-0.000000130625
1001
TCAD
1000
TCW_CUSTOM_DATA
1002
{
1000
#$AUX@_ToolInfo Properties
1070
           8
1000
Insert^JLine^JSingle@Line Single
1002
}
  0
ARC
  5
A2
100
AcDbEntity
  8
Exterior View
370
           0
  6
Continuous
 62
           7
100
AcDbCircle
 10
-1.692013706666
 20
9.569166457808
 30
0.0
 40
1.087113663784
100
AcDbArc
 50
-90.142056839932
 51
-33.258486461021
  0
ARC
  5
A3
100
AcDbEntity
  8
Hidden
370
           0
  6
HIDDEN
 62
           7
 48
0.20000000298
100
AcDbCircle
 10
-1.692013706666
 20
9.569166457808
 30
0.0
 40
1.087113663784
100
AcDbArc
 50
-33.258486461021
 51
-26.753787437314
  0
ARC
  5
A4
100
AcDbEntity
  8
Exterior View
370
           0
  6
Continuous
 62
           7
100
AcDbCircle
 10
-0.815301972152
 20
8.874852762857
 30
0.0
 40
0.03125
100
AcDbArc
 50
-0.634210057852
 51
143.588125377485
  0
ARC
  5
A5
100
AcDbEntity
  8
Hidden
370
           0
  6
HIDDEN
 62
           7
 48
0.20000000298
100
AcDbCircle
 10
3.803150054713
 20
1.766671322731
 30
0.0
 40
0.25
100
AcDbArc
 50
179.820029733542
 51
284.52068778809
  0
ARC
  5
A6
100
AcDbEntity
  8
Hidden
370
           0
  6
HIDDEN
 62
           7
 48
0.20000000298
100
AcDbCircle
 10
2.105681959368
 20
0.738516636565
 30
0.0
 40
0.25
100
AcDbArc
 50
-60.0
 51
60.0
  0
ARC
  5
A7
100
AcDbEntity
  8
Hidden
370
           0
  6
HIDDEN
 62
           7
 48
0.20000000298
100
AcDbCircle
 10
2.480681959368
 20
0.088997583726
 30
0.0
 40
0.5
100
AcDbArc
 50
120.0
 51
180.0
  0
ARC
  5
A8
100
AcDbEntity
  8
Hidden
370
           0
  6
HIDDEN
 62
           7
 48
0.20000000298
100
AcDbCircle
 10
2.480681959368
 20
1.388035689403
 30
0.0
 40
0.5
100
AcDbArc
 50
180.0
 51
240.0
  0
ARC
  5
A9
100
AcDbEntity
  8
Hidden
370
           0
  6
HIDDEN
 62
           7
 48
0.20000000298
100
AcDbCircle
 10
3.053153754589
 20
1.769027124136
 30
0.0
 40
0.5
100
AcDbArc
 50
-0.179970266461
 51
68.817859387599
  0
ARC
  5
AA
100
AcDbEntity
  8
Hidden
370
           0
  6
HIDDEN
 62
           7
 48
0.20000000298
100
AcDbCircle
 10
3.991197222321
 20
1.040628443313
 30
0.0
 40
0.5
100
AcDbArc
 50
35.522858134031
 51
104.520687788091
  0
LINE
  5
AB
100
AcDbEntity
  8
Exterior View
370
           0
  6
Continuous
 62
           7
100
AcDbLine
 10
-0.500000000001
 20
23.24315981532
 30
0.0
 11
-0.65625
 21
0.97315981532
 31
0.0
1001
TCAD
1000
TCW_CUSTOM_DATA
1002
{
1000
#$AUX@_ToolInfo Properties
1070
           8
1000
Insert^JLine^JSingle@Line Single
1002
}
  0
LINE
  5
AC
100
AcDbEntity
  8
Exterior View
370
           0
  6
Continuous
 62
           7
100
AcDbLine
 10
-0.21875
 20
0.97315981532
 30
0.0
 11
-0.167000000001
 21
23.24315981532
 31
0.0
1001
TCAD
1000
TCW_CUSTOM_DATA
1002
{
1000
#$AUX@_ToolInfo Properties
1070
           8
1000
Insert^JLine^JSingle@Line Single
1002
}
  0
LINE
  5
AD
100
AcDbEntity
  8
Exterior View
370
           0
  6
Continuous
 62
           7
100
AcDbLine
 10
0.166999999999
 20
23.24315981532
 30
0.0
 11
0.21875
 21
0.97315981532
 31
0.0
1001
TCAD
1000
TCW_CUSTOM_DATA
1002
{
1000
#$AUX@_ToolInfo Properties
1070
           8
1000
Insert^JLine^JSingle@Line Single
1002
}
  0
LINE
  5
AE
100
AcDbEntity
  8
Exterior View
370
           0
  6
Continuous
 62
           7
100
AcDbLine
 10
0.65625
 20
0.97315981532
 30
0.0
 11
0.499999999999
 21
23.24315981532
 31
0.0
1001
TCAD
1000
TCW_CUSTOM_DATA
1002
{
1000
#$AUX@_ToolInfo Properties
1070
           8
1000
Insert^JLine^JSingle@Line Single
1002
}
  0
LINE
  5
AF
100
AcDbEntity
  8
Exterior View
370
           0
  6
Continuous
 62
           7
100
AcDbLine
 10
0.8125
 20
1.375000000012
 30
0.0
 11
-0.81250001605
 21
1.375000000012
 31
0.0
1001
TCAD
1000
TCW_CUSTOM_DATA
1002
{
1000
#$AUX@_ToolInfo Properties
1070
           8
1000
Insert^JLine^JPerpendicular@Line Perpendicular
1002
}
  0
LINE
  5
B0
100
AcDbEntity
  8
Exterior View
370
           0
  6
Continuous
 62
           7
100
AcDbLine
 10
1.0
 20
0.000000000012
 30
0.0
 11
-1.0
 21
0.000000000012
 31
0.0
1001
TCAD
1000
TCW_CUSTOM_DATA
1002
{
1000
#$AUX@_ToolInfo Properties
1070
           8
1000
Insert^JLine^JPerpendicular@Line Perpendicular
1002
}
  0
ARC
  5
B1
100
AcDbEntity
  8
Exterior View
370
           0
  6
Continuous
 62
           7
100
AcDbCircle
 10
-0.8125
 20
1.187500000012
 30
0.0
 40
0.1875
100
AcDbArc
 50
90.0
 51
179.999999999978
  0
ARC
  5
B2
100
AcDbEntity
  8
Exterior View
370
           0
  6
Continuous
 62
           7
100
AcDbCircle
 10
0.8125
 20
1.187500000012
 30
0.0
 40
0.1875
100
AcDbArc
 50
0.0
 51
90.000000000017
  0
LINE
  5
B3
100
AcDbEntity
  8
Exterior View
370
           0
  6
Continuous
 62
           7
100
AcDbLine
 10
-0.849461461482
 20
0.34815981532
 30
0.0
 11
-0.463038538519
 21
0.34815981532
 31
0.0
1001
TCAD
1000
TCW_CUSTOM_DATA
1002
{
1000
#$AUX@_ToolInfo Properties
1070
           8
1000
Insert^JLine^JPerpendicular@Line Perpendicular
1002
}
  0
LINE
  5
B4
100
AcDbEntity
  8
Exterior View
370
           0
  6
Continuous
 62
           7
100
AcDbLine
 10
-0.849461461482
 20
0.97315981532
 30
0.0
 11
-0.463038538518
 21
0.97315981532
 31
0.0
1001
TCAD
1000
TCW_CUSTOM_DATA
1002
{
1000
#$AUX@_ToolInfo Properties
1070
           8
1000
Insert^JLine^JPerpendicular@Line Perpendicular
1002
}
  0
LINE
  5
B5
100
AcDbEntity
  8
Exterior View
370
           0
  6
Continuous
 62
           7
100
AcDbLine
 10
-0.849461461482
 20
0.97315981532
 30
0.0
 11
-0.849461461482
 21
0.34815981532
 31
0.0
1001
TCAD
1000
TCW_CUSTOM_DATA
1002
{
1000
#$AUX@_ToolInfo Properties
1070
           8
1000
Insert^JLine^JPerpendicular@Line Perpendicular
1002
}
  0
LINE
  5
B6
100
AcDbEntity
  8
Exterior View
370
           0
  6
Continuous
 62
           7
100
AcDbLine
 10
-0.463038538518
 20
0.97315981532
 30
0.0
 11
-0.463038538519
 21
0.34815981532
 31
0.0
1001
TCAD
1000
TCW_CUSTOM_DATA
1002
{
1000
#$AUX@_ToolInfo Properties
1070
           8
1000
Insert^JLine^JPerpendicular@Line Perpendicular
1002
}
  0
LINE
  5
B7
100
AcDbEntity
  8
Exterior View
370
           0
  6
Continuous
 62
           7
100
AcDbLine
 10
-0.411961461482
 20
0.34815981532
 30
0.0
 11
-0.025538538519
 21
0.34815981532
 31
0.0
1001
TCAD
1000
TCW_CUSTOM_DATA
1002
{
1000
#$AUX@_ToolInfo Properties
1070
           8
1000
Insert^JLine^JPerpendicular@Line Perpendicular
1002
}
  0
LINE
  5
B8
100
AcDbEntity
  8
Exterior View
370
           0
  6
Continuous
 62
           7
100
AcDbLine
 10
-0.411961461482
 20
0.97315981532
 30
0.0
 11
-0.025538538518
 21
0.97315981532
 31
0.0
1001
TCAD
1000
TCW_CUSTOM_DATA
1002
{
1000
#$AUX@_ToolInfo Properties
1070
           8
1000
Insert^JLine^JPerpendicular@Line Perpendicular
1002
}
  0
LINE
  5
B9
100
AcDbEntity
  8
Exterior View
370
           0
  6
Continuous
 62
           7
100
AcDbLine
 10
-0.411961461482
 20
0.97315981532
 30
0.0
 11
-0.411961461482
 21
0.34815981532
 31
0.0
1001
TCAD
1000
TCW_CUSTOM_DATA
1002
{
1000
#$AUX@_ToolInfo Properties
1070
           8
1000
Insert^JLine^JPerpendicular@Line Perpendicular
1002
}
  0
LINE
  5
BA
100
AcDbEntity
  8
Exterior View
370
           0
  6
Continuous
 62
           7
100
AcDbLine
 10
-0.025538538518
 20
0.97315981532
 30
0.0
 11
-0.025538538519
 21
0.34815981532
 31
0.0
1001
TCAD
1000
TCW_CUSTOM_DATA
1002
{
1000
#$AUX@_ToolInfo Properties
1070
           8
1000
Insert^JLine^JPerpendicular@Line Perpendicular
1002
}
  0
LINE
  5
BB
100
AcDbEntity
  8
Exterior View
370
           0
  6
Continuous
 62
           7
100
AcDbLine
 10
0.025538538518
 20
0.34815981532
 30
0.0
 11
0.411961461481
 21
0.34815981532
 31
0.0
1001
TCAD
1000
TCW_CUSTOM_DATA
1002
{
1000
#$AUX@_ToolInfo Properties
1070
           8
1000
Insert^JLine^JPerpendicular@Line Perpendicular
1002
}
  0
LINE
  5
BC
100
AcDbEntity
  8
Exterior View
370
           0
  6
Continuous
 62
           7
100
AcDbLine
 10
0.025538538518
 20
0.97315981532
 30
0.0
 11
0.411961461482
 21
0.97315981532
 31
0.0
1001
TCAD
1000
TCW_CUSTOM_DATA
1002
{
1000
#$AUX@_ToolInfo Properties
1070
           8
1000
Insert^JLine^JPerpendicular@Line Perpendicular
1002
}
  0
LINE
  5
BD
100
AcDbEntity
  8
Exterior View
370
           0
  6
Continuous
 62
           7
100
AcDbLine
 10
0.025538538518
 20
0.97315981532
 30
0.0
 11
0.025538538518
 21
0.34815981532
 31
0.0
1001
TCAD
1000
TCW_CUSTOM_DATA
1002
{
1000
#$AUX@_ToolInfo Properties
1070
           8
1000
Insert^JLine^JPerpendicular@Line Perpendicular
1002
}
  0
LINE
  5
BE
100
AcDbEntity
  8
Exterior View
370
           0
  6
Continuous
 62
           7
100
AcDbLine
 10
0.411961461482
 20
0.97315981532
 30
0.0
 11
0.411961461481
 21
0.34815981532
 31
0.0
1001
TCAD
1000
TCW_CUSTOM_DATA
1002
{
1000
#$AUX@_ToolInfo Properties
1070
           8
1000
Insert^JLine^JPerpendicular@Line Perpendicular
1002
}
  0
LINE
  5
BF
100
AcDbEntity
  8
Exterior View
370
           0
  6
Continuous
 62
           7
100
AcDbLine
 10
0.463038538518
 20
0.34815981532
 30
0.0
 11
0.849461461481
 21
0.34815981532
 31
0.0
1001
TCAD
1000
TCW_CUSTOM_DATA
1002
{
1000
#$AUX@_ToolInfo Properties
1070
           8
1000
Insert^JLine^JPerpendicular@Line Perpendicular
1002
}
  0
LINE
  5
C0
100
AcDbEntity
  8
Exterior View
370
           0
  6
Continuous
 62
           7
100
AcDbLine
 10
0.463038538518
 20
0.97315981532
 30
0.0
 11
0.849461461482
 21
0.97315981532
 31
0.0
1001
TCAD
1000
TCW_CUSTOM_DATA
1002
{
1000
#$AUX@_ToolInfo Properties
1070
           8
1000
Insert^JLine^JPerpendicular@Line Perpendicular
1002
}
  0
LINE
  5
C1
100
AcDbEntity
  8
Exterior View
370
           0
  6
Continuous
 62
           7
100
AcDbLine
 10
0.463038538518
 20
0.97315981532
 30
0.0
 11
0.463038538518
 21
0.34815981532
 31
0.0
1001
TCAD
1000
TCW_CUSTOM_DATA
1002
{
1000
#$AUX@_ToolInfo Properties
1070
           8
1000
Insert^JLine^JPerpendicular@Line Perpendicular
1002
}
  0
LINE
  5
C2
100
AcDbEntity
  8
Exterior View
370
           0
  6
Continuous
 62
           7
100
AcDbLine
 10
0.849461461482
 20
0.97315981532
 30
0.0
 11
0.849461461481
 21
0.34815981532
 31
0.0
1001
TCAD
1000
TCW_CUSTOM_DATA
1002
{
1000
#$AUX@_ToolInfo Properties
1070
           8
1000
Insert^JLine^JPerpendicular@Line Perpendicular
1002
}
  0
ELLIPSE
  5
C3
100
AcDbEntity
  8
Hidden
370
           0
  6
HIDDEN
 62
           7
 48
0.20000000298
100
AcDbEllipse
 10
18.961323160163
 20
-1.583564824024
 30
0.0
 11
24.727945143435605
 21
0.0
 31
0.0
210
0.0
220
0.0
230
1.0
 40
0.420397137134
 41
2.69907909261457
 42
2.994612076959537
  0
ELLIPSE
  5
C4
100
AcDbEntity
  8
Hidden
370
           0
  6
HIDDEN
 62
           7
 48
0.20000000298
100
AcDbEllipse
 10
-7.671819491222
 20
4.42632241755
 30
0.0
 11
5.1149916536164852
 21
0.0
 31
0.0
210
0.0
220
0.0
230
1.0
 40
0.558547548958
 41
-0.5769467773221878
 42
0.0
  0
POINT
  5
C5
100
AcDbEntity
  8
Hidden
  6
Continuous
 62
           7
100
AcDbPoint
 10
2.105681959368
 20
-1.511483363435
 30
0.0
1001
TCAD
1000
TCW_CUSTOM_DATA
1002
{
1000
#$AUX@_ToolInfo Properties
1070
           8
1000
Insert^JPoint^JCross@Point Cross
1002
}
1000
TC25ExternalObject
1002
{
1000
TCW30POINT
1000

1070
           0
1071
        0
1040
1.0
1040
0.0
1000
Continuous
1000
Hidden
1070
          21
1071
        1
1071
      242
1010
2.105681959368
1020
-1.511483363435
1030
0.0
1070
           3
1071
-2147483645
1070
           1
1000
#$AUX@_ToolInfo Properties
1070
           8
1000
Insert^JPoint^JCross@Point Cross
1000
$POINTSIZE
1070
           5
1040
0.25
1000
$POINTTYPE
1070
          18
1070
           3
1000
ExplodeScale
1070
           5
1040
1.0
1002
}
  0
POINT
  5
C6
100
AcDbEntity
  8
Hidden
  6
Continuous
 62
           7
100
AcDbPoint
 10
2.105681959368
 20
0.738516636565
 30
0.0
1001
TCAD
1000
TCW_CUSTOM_DATA
1002
{
1000
#$AUX@_ToolInfo Properties
1070
           8
1000
Insert^JPoint^JCross@Point Cross
1002
}
1000
TC25ExternalObject
1002
{
1000
TCW30POINT
1000

1070
           0
1071
        0
1040
1.0
1040
0.0
1000
Continuous
1000
Hidden
1070
          21
1071
        1
1071
      242
1010
2.105681959368
1020
0.738516636565
1030
0.0
1070
           3
1071
-2147483645
1070
           1
1000
#$AUX@_ToolInfo Properties
1070
           8
1000
Insert^JPoint^JCross@Point Cross
1000
$POINTSIZE
1070
           5
1040
0.25
1000
$POINTTYPE
1070
          18
1070
           3
1000
ExplodeScale
1070
           5
1040
1.0
1002
}
  0
POINT
  5
C7
100
AcDbEntity
  8
Hidden
  6
Continuous
 62
           7
100
AcDbPoint
 10
3.803150054713
 20
1.766671322731
 30
0.0
1001
TCAD
1000
TCW_CUSTOM_DATA
1002
{
1000
#$AUX@_ToolInfo Properties
1070
           8
1000
Insert^JPoint^JCross@Point Cross
1002
}
1000
TC25ExternalObject
1002
{
1000
TCW30POINT
1000

1070
           0
1071
        0
1040
1.0
1040
0.0
1000
Continuous
1000
Hidden
1070
          21
1071
        1
1071
      242
1010
3.803150054713
1020
1.766671322731
1030
0.0
1070
           3
1071
-2147483645
1070
           1
1000
#$AUX@_ToolInfo Properties
1070
           8
1000
Insert^JPoint^JCross@Point Cross
1000
$POINTSIZE
1070
           5
1040
0.25
1000
$POINTTYPE
1070
          18
1070
           3
1000
ExplodeScale
1070
           5
1040
1.0
1002
}
  0
CIRCLE
  5
C8
100
AcDbEntity
  8
Hidden
370
           0
  6
HIDDEN
 62
           7
 48
0.20000000298
100
AcDbCircle
 10
2.105681959368
 20
-1.511483363435
 30
0.0
 40
0.109
1001
TCAD
1000
TCW_CUSTOM_DATA
1002
{
1000
#$AUX@_ToolInfo Properties
1070
           8
1000
Insert^JCircle^JCenterAndPoint@Circle CenterAndPoint
1002
}
  0
POINT
  5
C9
100
AcDbEntity
  8
Hidden
  6
Continuous
 62
           7
100
AcDbPoint
 10
3.853935222045
 20
-2.190944215575
 30
0.0
1001
TCAD
1000
TCW_CUSTOM_DATA
1002
{
1000
#$AUX@_ToolInfo Properties
1070
           8
1000
Insert^JPoint^JCross@Point Cross
1002
}
1000
TC25ExternalObject
1002
{
1000
TCW30POINT
1000

1070
           0
1071
        0
1040
1.0
1040
0.0
1000
Continuous
1000
Hidden
1070
          21
1071
        1
1071
      242
1010
3.853935222045
1020
-2.190944215575
1030
0.0
1070
           3
1071
-2147483645
1070
           1
1000
#$AUX@_ToolInfo Properties
1070
           8
1000
Insert^JPoint^JCross@Point Cross
1000
$POINTSIZE
1070
           5
1040
0.25
1000
$POINTTYPE
1070
          18
1070
           3
1000
ExplodeScale
1070
           5
1040
1.0
1002
}
  0
CIRCLE
  5
CA
100
AcDbEntity
  8
Hidden
370
           0
  6
HIDDEN
 62
           7
 48
0.20000000298
100
AcDbCircle
 10
3.853935222045
 20
-2.190944215575
 30
0.0
 40
0.109
1001
TCAD
1000
TCW_CUSTOM_DATA
1002
{
1000
#$AUX@_ToolInfo Properties
1070
           8
1000
Insert^JCircle^JCenterAndPoint@Circle CenterAndPoint
1002
}
  0
CIRCLE
  5
CB
100
AcDbEntity
  8
Hidden
370
           0
  6
HIDDEN
 62
           7
 48
0.20000000298
100
AcDbCircle
 10
2.105681959368
 20
0.738516636565
 30
0.0
 40
0.109
1001
TCAD
1000
TCW_CUSTOM_DATA
1002
{
1000
#$AUX@_ToolInfo Properties
1070
           8
1000
Insert^JCircle^JCenterAndPoint@Circle CenterAndPoint
1002
}
  0
CIRCLE
  5
CC
100
AcDbEntity
  8
Hidden
370
           0
  6
HIDDEN
 62
           7
 48
0.20000000298
100
AcDbCircle
 10
3.803150054713
 20
1.766671322731
 30
0.0
 40
0.109
1001
TCAD
1000
TCW_CUSTOM_DATA
1002
{
1000
#$AUX@_ToolInfo Properties
1070
           8
1000
Insert^JCircle^JCenterAndPoint@Circle CenterAndPoint
1002
}
  0
LINE
  5
CD
100
AcDbEntity
  8
Exterior View
370
           0
  6
Continuous
 62
           7
100
AcDbLine
 10
0.779176076165
 20
9.31515981532
 30
0.0
 11
-0.779176076166
 21
9.31515981532
 31
0.0
1001
TCAD
1000
TCW_CUSTOM_DATA
1002
{
1000
#$AUX@_ToolInfo Properties
1070
           8
1000
Insert^JLine^JPerpendicular@Line Perpendicular
1002
}
  0
LINE
  5
CE
100
AcDbEntity
  8
Exterior View
370
           0
  6
Continuous
 62
           7
100
AcDbLine
 10
0.789249326403
 20
8.40515981532
 30
0.0
 11
-0.789249326403
 21
8.40515981532
 31
0.0
1001
TCAD
1000
TCW_CUSTOM_DATA
1002
{
1000
#$AUX@_ToolInfo Properties
1070
           8
1000
Insert^JLine^JPerpendicular@Line Perpendicular
1002
}
  0
LINE
  5
CF
100
AcDbEntity
  8
Exterior View
370
           0
  6
Continuous
 62
           7
100
AcDbLine
 10
-0.806229948232
 20
6.87115981532
 30
0.0
 11
0.806229948232
 21
6.87115981532
 31
0.0
1001
TCAD
1000
TCW_CUSTOM_DATA
1002
{
1000
#$AUX@_ToolInfo Properties
1070
           8
1000
Insert^JLine^JPerpendicular@Line Perpendicular
1002
}
  0
LINE
  5
D0
100
AcDbEntity
  8
Exterior View
370
           0
  6
Continuous
 62
           7
100
AcDbLine
 10
-0.809893954638
 20
6.54015981532
 30
0.0
 11
0.809893954637
 21
6.54015981532
 31
0.0
1001
TCAD
1000
TCW_CUSTOM_DATA
1002
{
1000
#$AUX@_ToolInfo Properties
1070
           8
1000
Insert^JLine^JPerpendicular@Line Perpendicular
1002
}
  0
ARC
  5
D1
100
AcDbEntity
  8
Exterior View
370
           0
  6
Continuous
 62
           7
100
AcDbCircle
 10
-0.000000000001
 20
18.21165981532
 30
0.0
 40
11.875
100
AcDbArc
 50
-93.920106231505
 51
-86.079893768488
  0
ARC
  5
D2
100
AcDbEntity
  8
Hidden
370
           0
  6
HIDDEN
 62
           7
 48
0.20000000298
100
AcDbCircle
 10
-0.000000000001
 20
18.52415981532
 30
0.0
 40
11.875
100
AcDbArc
 50
-93.327838145246
 51
-86.67216183672
  0
ARC
  5
D3
100
AcDbEntity
  8
Hidden
370
           0
  6
HIDDEN
 62
           7
 48
0.20000000298
100
AcDbCircle
 10
-0.682076704634
 20
6.793973483936
 30
0.0
 40
0.125
100
AcDbArc
 50
179.365789942151
 51
266.672160894088
1001
TCAD
1000
TCW_CUSTOM_DATA
1002
{
1000
#$AUX@_ToolInfo Properties
1070
           8
1000
Insert^JArc^JTanToEntities@Arc TanToEntities
1002
}
  0
ARC
  5
D4
100
AcDbEntity
  8
Hidden
370
           0
  6
HIDDEN
 62
           7
 48
0.20000000298
100
AcDbCircle
 10
0.682076704634
 20
6.793973483936
 30
0.0
 40
0.125
100
AcDbArc
 50
-86.672157246214
 51
0.634210057855
1001
TCAD
1000
TCW_CUSTOM_DATA
1002
{
1000
#$AUX@_ToolInfo Properties
1070
           8
1000
Insert^JArc^JTanToEntities@Arc TanToEntities
1002
}
  0
ARC
  5
D5
100
AcDbEntity
  8
Hidden
370
           0
  6
HIDDEN
 62
           7
 48
0.20000000298
100
AcDbCircle
 10
-6.195193484011
 20
4.435605972378
 30
0.0
 40
3.638377490241
100
AcDbArc
 50
-0.374619540451
 51
42.396527722409
1001
TCAD
1000
TCW_CUSTOM_DATA
1002
{
1000
#$AUX@_ToolInfo Properties
1070
           8
1000
Insert^JArc^JTanToEntities@Arc TanToEntities
1002
}
  0
ARC
  5
D6
100
AcDbEntity
  8
Hidden
370
           0
  6
HIDDEN
 62
           7
 48
0.20000000298
100
AcDbCircle
 10
-0.707511958338
 20
9.445937972022
 30
0.0
 40
3.792509083639
100
AcDbArc
 50
-171.196151401536
 51
-137.603472277591
1001
TCAD
1000
TCW_CUSTOM_DATA
1002
{
1000
#$AUX@_ToolInfo Properties
1070
           8
1000
Insert^JArc^JTanToEntities@Arc TanToEntities
1002
}
  0
CIRCLE
  5
D7
100
AcDbEntity
  8
Hidden
370
           0
  6
HIDDEN
 62
           7
 48
0.20000000298
100
AcDbCircle
 10
-0.437500000039
 20
7.157532919725
 30
0.0
 40
0.095
1001
TCAD
1000
TCW_CUSTOM_DATA
1002
{
1000
#$AUX@_ToolInfo Properties
1070
           8
1000
Insert^JCircle^JCenterAndPoint@Circle CenterAndPoint
1002
}
  0
POINT
  5
D8
100
AcDbEntity
  8
Hidden
  6
Continuous
 62
           7
100
AcDbPoint
 10
-0.437500000039
 20
7.157532919725
 30
0.0
1001
TCAD
1000
TCW_CUSTOM_DATA
1002
{
1000
#$AUX@_ToolInfo Properties
1070
           8
1000
Insert^JPoint^JCross@Point Cross
1002
}
1000
TC25ExternalObject
1002
{
1000
TCW30POINT
1000

1070
           0
1071
        0
1040
1.0
1040
0.0
1000
Continuous
1000
Hidden
1070
          21
1071
        1
1071
      242
1010
-0.437500000039
1020
7.157532919725
1030
0.0
1070
           3
1071
-2147483645
1070
           1
1000
#$AUX@_ToolInfo Properties
1070
           8
1000
Insert^JPoint^JCross@Point Cross
1000
$POINTSIZE
1070
           5
1040
0.25
1000
$POINTTYPE
1070
          18
1070
           3
1000
ExplodeScale
1070
           5
1040
1.0
1002
}
  0
CIRCLE
  5
D9
100
AcDbEntity
  8
Hidden
370
           0
  6
HIDDEN
 62
           7
 48
0.20000000298
100
AcDbCircle
 10
0.437499999961
 20
7.157532919725
 30
0.0
 40
0.095
1001
TCAD
1000
TCW_CUSTOM_DATA
1002
{
1000
#$AUX@_ToolInfo Properties
1070
           8
1000
Insert^JCircle^JCenterAndPoint@Circle CenterAndPoint
1002
}
  0
POINT
  5
DA
100
AcDbEntity
  8
Hidden
  6
Continuous
 62
           7
100
AcDbPoint
 10
0.437499999961
 20
7.157532919725
 30
0.0
1001
TCAD
1000
TCW_CUSTOM_DATA
1002
{
1000
#$AUX@_ToolInfo Properties
1070
           8
1000
Insert^JPoint^JCross@Point Cross
1002
}
1000
TC25ExternalObject
1002
{
1000
TCW30POINT
1000

1070
           0
1071
        0
1040
1.0
1040
0.0
1000
Continuous
1000
Hidden
1070
          21
1071
        1
1071
      242
1010
0.437499999961
1020
7.157532919725
1030
0.0
1070
           3
1071
-2147483645
1070
           1
1000
#$AUX@_ToolInfo Properties
1070
           8
1000
Insert^JPoint^JCross@Point Cross
1000
$POINTSIZE
1070
           5
1040
0.25
1000
$POINTTYPE
1070
          18
1070
           3
1000
ExplodeScale
1070
           5
1040
1.0
1002
}
  0
ARC
  5
DB
100
AcDbEntity
  8
Exterior View
370
           0
  6
Continuous
 62
           7
100
AcDbCircle
 10
1.300727454834
 20
7.371012841409
 30
0.0
 40
0.5
100
AcDbArc
 50
-179.365789942143
 51
-140.219834894804
  0
ARC
  5
DC
100
AcDbEntity
  8
Exterior View
370
           0
  6
Continuous
 62
           7
100
AcDbCircle
 10
0.834773377997
 20
7.115839643798
 30
0.0
 40
0.03125
100
AcDbArc
 50
28.706696993711
 51
180.634210057859
  0
ARC
  5
DD
100
AcDbEntity
  8
Hidden
370
           0
  6
HIDDEN
 62
           7
 48
0.20000000298
100
AcDbCircle
 10
9.691661285486
 20
9.155537841562
 30
0.0
 40
0.25
100
AcDbArc
 50
5.710587347316
 51
10.811005982668
  0
ARC
  5
DE
100
AcDbEntity
  8
Exterior View
370
           0
  6
Continuous
 62
           7
100
AcDbCircle
 10
9.691661285486
 20
9.155537841562
 30
0.0
 40
0.25
100
AcDbArc
 50
10.811005982668
 51
89.999999996131
  0
ARC
  5
DF
100
AcDbEntity
  8
Hidden
370
           0
  6
HIDDEN
 62
           7
 48
0.20000000298
100
AcDbCircle
 10
0.000982122308
 20
8.619693615648
 30
0.0
 40
0.785844276127
100
AcDbArc
 50
0.634210057857
 51
89.825363420545
  0
LINE
  5
E0
100
AcDbEntity
  8
Hidden
370
           0
  6
HIDDEN
 62
           7
 48
0.20000000298
100
AcDbLine
 10
0.003377358834
 20
9.405534241452
 30
0.0
 11
-0.192264732771
 21
9.405537841498
 31
0.0
1001
TCAD
1000
TCW_CUSTOM_DATA
1002
{
1000
#$AUX@_ToolInfo Properties
1070
           8
1000
Insert^JLine^JSingle@Line Single
1002
}
  0
ARC
  5
E1
100
AcDbEntity
  8
Hidden
370
           0
  6
HIDDEN
 62
           7
 48
0.20000000298
100
AcDbCircle
 10
-0.191667096432
 20
8.812135085046
 30
0.0
 40
0.593403057402
100
AcDbArc
 50
90.057704531988
 51
153.188442281929
  0
CIRCLE
  5
E2
100
AcDbEntity
  8
Hidden
370
           0
  6
HIDDEN
 62
           7
 48
0.20000000298
100
AcDbCircle
 10
0.406228668683
 20
8.687282489565
 30
0.0
 40
0.095
1001
TCAD
1000
TCW_CUSTOM_DATA
1002
{
1000
#$AUX@_ToolInfo Properties
1070
           8
1000
Insert^JCircle^JCenterAndPoint@Circle CenterAndPoint
1002
}
  0
POINT
  5
E3
100
AcDbEntity
  8
Hidden
  6
Continuous
 62
           7
100
AcDbPoint
 10
0.406228668683
 20
8.687282489565
 30
0.0
1001
TCAD
1000
TCW_CUSTOM_DATA
1002
{
1000
#$AUX@_ToolInfo Properties
1070
           8
1000
Insert^JPoint^JCross@Point Cross
1002
}
1000
TC25ExternalObject
1002
{
1000
TCW30POINT
1000

1070
           0
1071
        0
1040
1.0
1040
0.0
1000
Continuous
1000
Hidden
1070
          21
1071
        1
1071
      242
1010
0.406228668683
1020
8.687282489565
1030
0.0
1070
           3
1071
-2147483645
1070
           1
1000
#$AUX@_ToolInfo Properties
1070
           8
1000
Insert^JPoint^JCross@Point Cross
1000
$POINTSIZE
1070
           5
1040
0.25
1000
$POINTTYPE
1070
          18
1070
           3
1000
ExplodeScale
1070
           5
1040
1.0
1002
}
  0
POINT
  5
E4
100
AcDbEntity
  8
Hidden
  6
Continuous
 62
           7
100
AcDbPoint
 10
-0.382227985563
 20
8.918842362286
 30
0.0
1001
TCAD
1000
TCW_CUSTOM_DATA
1002
{
1000
#$AUX@_ToolInfo Properties
1070
           8
1000
Insert^JPoint^JCross@Point Cross
1002
}
1000
TC25ExternalObject
1002
{
1000
TCW30POINT
1000

1070
           0
1071
        0
1040
1.0
1040
0.0
1000
Continuous
1000
Hidden
1070
          21
1071
        1
1071
      242
1010
-0.382227985563
1020
8.918842362286
1030
0.0
1070
           3
1071
-2147483645
1070
           1
1000
#$AUX@_ToolInfo Properties
1070
           8
1000
Insert^JPoint^JCross@Point Cross
1000
$POINTSIZE
1070
           5
1040
0.25
1000
$POINTTYPE
1070
          18
1070
           3
1000
ExplodeScale
1070
           5
1040
1.0
1002
}
  0
CIRCLE
  5
E5
100
AcDbEntity
  8
Hidden
370
           0
  6
HIDDEN
 62
           7
 48
0.20000000298
100
AcDbCircle
 10
-0.382227985563
 20
8.918842362286
 30
0.0
 40
0.095
1001
TCAD
1000
TCW_CUSTOM_DATA
1002
{
1000
#$AUX@_ToolInfo Properties
1070
           8
1000
Insert^JCircle^JCenterAndPoint@Circle CenterAndPoint
1002
}
  0
CIRCLE
  5
E6
100
AcDbEntity
  8
Hidden
370
           0
  6
HIDDEN
 62
           7
 48
0.20000000298
100
AcDbCircle
 10
-0.437500000039
 20
7.157532919725
 30
0.0
 40
0.07
1001
TCAD
1000
TCW_CUSTOM_DATA
1002
{
1000
#$AUX@_ToolInfo Properties
1070
           8
1000
Insert^JCircle^JCenterAndPoint@Circle CenterAndPoint
1002
}
  0
CIRCLE
  5
E7
100
AcDbEntity
  8
Hidden
370
           0
  6
HIDDEN
 62
           7
 48
0.20000000298
100
AcDbCircle
 10
0.437499999961
 20
7.157532919725
 30
0.0
 40
0.07
1001
TCAD
1000
TCW_CUSTOM_DATA
1002
{
1000
#$AUX@_ToolInfo Properties
1070
           8
1000
Insert^JCircle^JCenterAndPoint@Circle CenterAndPoint
1002
}
  0
CIRCLE
  5
E8
100
AcDbEntity
  8
Hidden
370
           0
  6
HIDDEN
 62
           7
 48
0.20000000298
100
AcDbCircle
 10
0.406228668683
 20
8.687282489565
 30
0.0
 40
0.07
1001
TCAD
1000
TCW_CUSTOM_DATA
1002
{
1000
#$AUX@_ToolInfo Properties
1070
           8
1000
Insert^JCircle^JCenterAndPoint@Circle CenterAndPoint
1002
}
  0
CIRCLE
  5
E9
100
AcDbEntity
  8
Hidden
370
           0
  6
HIDDEN
 62
           7
 48
0.20000000298
100
AcDbCircle
 10
-0.382227985563
 20
8.918842362286
 30
0.0
 40
0.07
1001
TCAD
1000
TCW_CUSTOM_DATA
1002
{
1000
#$AUX@_ToolInfo Properties
1070
           8
1000
Insert^JCircle^JCenterAndPoint@Circle CenterAndPoint
1002
}
  0
CIRCLE
  5
EA
100
AcDbEntity
  8
Hidden
370
           0
  6
HIDDEN
 62
           7
 48
0.20000000298
100
AcDbCircle
 10
-0.382227985563
 20
8.918842362286
 30
0.0
 40
0.2055
1001
TCAD
1000
TCW_CUSTOM_DATA
1002
{
1000
#$AUX@_ToolInfo Properties
1070
           8
1000
Insert^JCircle^JCenterAndPoint@Circle CenterAndPoint
1002
}
  0
CIRCLE
  5
EB
100
AcDbEntity
  8
Hidden
370
           0
  6
HIDDEN
 62
           7
 48
0.20000000298
100
AcDbCircle
 10
0.406228668683
 20
8.687282489565
 30
0.0
 40
0.2055
1001
TCAD
1000
TCW_CUSTOM_DATA
1002
{
1000
#$AUX@_ToolInfo Properties
1070
           8
1000
Insert^JCircle^JCenterAndPoint@Circle CenterAndPoint
1002
}
  0
CIRCLE
  5
EC
100
AcDbEntity
  8
Hidden
370
           0
  6
HIDDEN
 62
           7
 48
0.20000000298
100
AcDbCircle
 10
-0.437500000039
 20
7.157532919725
 30
0.0
 40
0.2055
1001
TCAD
1000
TCW_CUSTOM_DATA
1002
{
1000
#$AUX@_ToolInfo Properties
1070
           8
1000
Insert^JCircle^JCenterAndPoint@Circle CenterAndPoint
1002
}
  0
CIRCLE
  5
ED
100
AcDbEntity
  8
Hidden
370
           0
  6
HIDDEN
 62
           7
 48
0.20000000298
100
AcDbCircle
 10
0.437499999961
 20
7.157532919725
 30
0.0
 40
0.2055
1001
TCAD
1000
TCW_CUSTOM_DATA
1002
{
1000
#$AUX@_ToolInfo Properties
1070
           8
1000
Insert^JCircle^JCenterAndPoint@Circle CenterAndPoint
1002
}
  0
LINE
  5
EE
100
AcDbEntity
  8
Exterior View
370
           0
  6
Continuous
 62
           7
100
AcDbLine
 10
-0.500000000001
 20
23.24315981532
 30
0.0
 11
-0.500000000001
 21
23.430668802084
 31
0.0
1001
TCAD
1000
TCW_CUSTOM_DATA
1002
{
1000
#$AUX@_ToolInfo Properties
1070
           8
1000
Insert^JLine^JPerpendicular@Line Perpendicular
1002
}
  0
LINE
  5
EF
100
AcDbEntity
  8
Exterior View
370
           0
  6
Continuous
 62
           7
100
AcDbLine
 10
-0.167000000001
 20
23.24315981532
 30
0.0
 11
-0.167000000001
 21
23.43066879329
 31
0.0
1001
TCAD
1000
TCW_CUSTOM_DATA
1002
{
1000
#$AUX@_ToolInfo Properties
1070
           8
1000
Insert^JLine^JPerpendicular@Line Perpendicular
1002
}
  0
LINE
  5
F0
100
AcDbEntity
  8
Exterior View
370
           0
  6
Continuous
 62
           7
100
AcDbLine
 10
0.166999999999
 20
23.24315981532
 30
0.0
 11
0.166999999999
 21
23.430668802084
 31
0.0
1001
TCAD
1000
TCW_CUSTOM_DATA
1002
{
1000
#$AUX@_ToolInfo Properties
1070
           8
1000
Insert^JLine^JPerpendicular@Line Perpendicular
1002
}
  0
LINE
  5
F1
100
AcDbEntity
  8
Exterior View
370
           0
  6
Continuous
 62
           7
100
AcDbLine
 10
0.499999999999
 20
23.24315981532
 30
0.0
 11
0.499999999999
 21
23.430668802084
 31
0.0
1001
TCAD
1000
TCW_CUSTOM_DATA
1002
{
1000
#$AUX@_ToolInfo Properties
1070
           8
1000
Insert^JLine^JPerpendicular@Line Perpendicular
1002
}
  0
LINE
  5
F2
100
AcDbEntity
  8
Exterior View
370
           0
  6
Continuous
 62
           7
100
AcDbLine
 10
-3.278546585769
 20
12.46521375024
 30
0.0
 11
-2.925675054589
 21
12.261483276724
 31
0.0
1001
TCAD
1000
TCW_CUSTOM_DATA
1002
{
1000
#$AUX@_ToolInfo Properties
1070
           8
1000
Insert^JLine^JSingle@Line Single
1002
}
  0
LINE
  5
F3
100
AcDbEntity
  8
Exterior View
370
           0
  6
Continuous
 62
           7
100
AcDbLine
 10
-3.382851971973
 20
12.164590574799
 30
0.0
 11
-3.133869668385
 21
12.020840574799
 31
0.0
1001
TCAD
1000
TCW_CUSTOM_DATA
1002
{
1000
#$AUX@_ToolInfo Properties
1070
           8
1000
Insert^JLine^JSingle@Line Single
1002
}
  0
LINE
  5
F4
100
AcDbEntity
  8
Exterior View
370
           0
  6
Continuous
 62
           7
100
AcDbLine
 10
-3.407707236237
 20
12.121539994258
 30
0.0
 11
-3.324258221973
 21
12.266077926805
 31
0.0
1001
TCAD
1000
TCW_CUSTOM_DATA
1002
{
1000
#$AUX@_ToolInfo Properties
1070
           8
1000
Insert^JLine^JPerpendicular@Line Perpendicular
1002
}
  0
LINE
  5
F5
100
AcDbEntity
  8
Exterior View
370
           0
  6
Continuous
 62
           7
100
AcDbLine
 10
-3.160982740397
 20
11.973879356524
 30
0.0
 11
-3.075275918385
 21
12.122327926805
 31
0.0
1001
TCAD
1000
TCW_CUSTOM_DATA
1002
{
1000
#$AUX@_ToolInfo Properties
1070
           8
1000
Insert^JLine^JPerpendicular@Line Perpendicular
1002
}
  0
LINE
  5
F6
100
AcDbEntity
  8
Exterior View
370
           0
  6
Continuous
 62
           7
100
AcDbLine
 10
-3.347423391211
 20
12.418176483007
 30
0.0
 11
-3.324258221973
 21
12.266077926805
 31
0.0
1001
TCAD
1000
TCW_CUSTOM_DATA
1002
{
1000
#$AUX@_ToolInfo Properties
1070
           8
1000
Insert^JLine^JSingle@Line Single
1002
}
  0
LINE
  5
F7
100
AcDbEntity
  8
Exterior View
370
           0
  6
Continuous
 62
           7
100
AcDbLine
 10
-2.931972125598
 20
12.17831557776
 30
0.0
 11
-3.075275918385
 21
12.122327926805
 31
0.0
1001
TCAD
1000
TCW_CUSTOM_DATA
1002
{
1000
#$AUX@_ToolInfo Properties
1070
           8
1000
Insert^JLine^JSingle@Line Single
1002
}
  0
ARC
  5
F8
100
AcDbEntity
  8
Exterior View
370
           0
  6
Continuous
 62
           7
100
AcDbCircle
 10
-3.301681349011
 20
12.425143164884
 30
0.0
 40
0.046269526484
100
AcDbArc
 50
59.999999999992
 51
188.659807400319
1001
TCAD
1000
TCW_CUSTOM_DATA
1002
{
1000
#$AUX@_ToolInfo Properties
1070
           8
1000
Insert^JArc^JTanToEntities@Arc TanToEntities
1002
}
  0
ARC
  5
F9
100
AcDbEntity
  8
Exterior View
370
           0
  6
Continuous
 62
           7
100
AcDbCircle
 10
-2.948809817831
 20
12.221412691368
 30
0.0
 40
0.046269526484
100
AcDbArc
 50
-68.659815794419
 51
59.999999999995
1001
TCAD
1000
TCW_CUSTOM_DATA
1002
{
1000
#$AUX@_ToolInfo Properties
1070
           8
1000
Insert^JArc^JTanToEntities@Arc TanToEntities
1002
}
  0
LINE
  5
FA
100
AcDbEntity
  8
Exterior View
370
           0
  6
Continuous
 62
           7
100
AcDbLine
 10
0.204049929426
 20
-4.097499071951
 30
0.0
 11
-0.203411017606
 21
-4.097499071951
 31
0.0
1001
TCAD
1000
TCW_CUSTOM_DATA
1002
{
1000
#$AUX@_ToolInfo Properties
1070
           8
1000
Insert^JLine^JSingle@Line Single
1002
}
  0
LINE
  5
FB
100
AcDbEntity
  8
Exterior View
370
           0
  6
Continuous
 62
           7
100
AcDbLine
 10
0.14406945591
 20
-3.784999071951
 30
0.0
 11
-0.14343054409
 21
-3.784999071951
 31
0.0
1001
TCAD
1000
TCW_CUSTOM_DATA
1002
{
1000
#$AUX@_ToolInfo Properties
1070
           8
1000
Insert^JLine^JSingle@Line Single
1002
}
  0
LINE
  5
FC
100
AcDbEntity
  8
Exterior View
370
           0
  6
Continuous
 62
           7
100
AcDbLine
 10
0.14406945591
 20
-3.761288984131
 30
0.0
 11
0.14406945591
 21
-3.902186571951
 31
0.0
1001
TCAD
1000
TCW_CUSTOM_DATA
1002
{
1000
#$AUX@_ToolInfo Properties
1070
           8
1000
Insert^JLine^JPerpendicular@Line Perpendicular
1002
}
  0
LINE
  5
FD
100
AcDbEntity
  8
Exterior View
370
           0
  6
Continuous
 62
           7
100
AcDbLine
 10
-0.14343054409
 20
-3.761289150564
 30
0.0
 11
-0.14343054409
 21
-3.902186571951
 31
0.0
1001
TCAD
1000
TCW_CUSTOM_DATA
1002
{
1000
#$AUX@_ToolInfo Properties
1070
           8
1000
Insert^JLine^JPerpendicular@Line Perpendicular
1002
}
  0
LINE
  5
FE
100
AcDbEntity
  8
Exterior View
370
           0
  6
Continuous
 62
           7
100
AcDbLine
 10
0.240180359055
 20
-4.022325200881
 30
0.0
 11
0.14406945591
 21
-3.902186571951
 31
0.0
1001
TCAD
1000
TCW_CUSTOM_DATA
1002
{
1000
#$AUX@_ToolInfo Properties
1070
           8
1000
Insert^JLine^JSingle@Line Single
1002
}
  0
LINE
  5
FF
100
AcDbEntity
  8
Exterior View
370
           0
  6
Continuous
 62
           7
100
AcDbLine
 10
-0.239541443624
 20
-4.022325196369
 30
0.0
 11
-0.14343054409
 21
-3.902186571951
 31
0.0
1001
TCAD
1000
TCW_CUSTOM_DATA
1002
{
1000
#$AUX@_ToolInfo Properties
1070
           8
1000
Insert^JLine^JSingle@Line Single
1002
}
  0
ARC
  5
100
100
AcDbEntity
  8
Exterior View
370
           0
  6
Continuous
 62
           7
100
AcDbCircle
 10
0.204049929426
 20
-4.051229545467
 30
0.0
 40
0.046269526484
100
AcDbArc
 50
-90.0
 51
38.659807400311
1001
TCAD
1000
TCW_CUSTOM_DATA
1002
{
1000
#$AUX@_ToolInfo Properties
1070
           8
1000
Insert^JArc^JTanToEntities@Arc TanToEntities
1002
}
  0
ARC
  5
101
100
AcDbEntity
  8
Exterior View
370
           0
  6
Continuous
 62
           7
100
AcDbCircle
 10
-0.203411017606
 20
-4.051229545467
 30
0.0
 40
0.046269526484
100
AcDbArc
 50
141.34018420559
 51
270.0
1001
TCAD
1000
TCW_CUSTOM_DATA
1002
{
1000
#$AUX@_ToolInfo Properties
1070
           8
1000
Insert^JArc^JTanToEntities@Arc TanToEntities
1002
}
  0
LINE
  5
102
100
AcDbEntity
  8
Exterior View
370
           0
  6
Continuous
 62
           7
100
AcDbLine
 10
-1.28125
 20
2.827500000012
 30
0.0
 11
1.281250013552
 21
2.827500000012
 31
0.0
1001
TCAD
1000
TCW_CUSTOM_DATA
1002
{
1000
#$AUX@_ToolInfo Properties
1070
           8
1000
Insert^JLine^JSingle@Line Single
1002
}
  0
LINE
  5
103
100
AcDbEntity
  8
Exterior View
370
           0
  6
Continuous
 62
           7
100
AcDbLine
 10
-1.28125
 20
2.140000000012
 30
0.0
 11
1.281249986448
 21
2.140000000012
 31
0.0
1001
TCAD
1000
TCW_CUSTOM_DATA
1002
{
1000
#$AUX@_ToolInfo Properties
1070
           8
1000
Insert^JLine^JPerpendicular@Line Perpendicular
1002
}
  0
ARC
  5
104
100
AcDbEntity
  8
Exterior View
370
           0
  6
Continuous
 62
           7
100
AcDbCircle
 10
-1.03125
 20
2.483750000012
 30
0.0
 40
0.34375
100
AcDbArc
 50
90.0
 51
270.0
1001
TCAD
1000
TCW_CUSTOM_DATA
1002
{
1000
#$AUX@_ToolInfo Properties
1070
           8
1000
Insert^JArc^JTanToEntities@Arc TanToEntities
1002
}
  0
ARC
  5
105
100
AcDbEntity
  8
Exterior View
370
           0
  6
Continuous
 62
           7
100
AcDbCircle
 10
1.03125
 20
2.483750000012
 30
0.0
 40
0.34375
100
AcDbArc
 50
-90.0
 51
89.999999146226
1001
TCAD
1000
TCW_CUSTOM_DATA
1002
{
1000
#$AUX@_ToolInfo Properties
1070
           8
1000
Insert^JArc^JTanToEntities@Arc TanToEntities
1002
}
  0
ARC
  5
106
100
AcDbEntity
  8
Exterior View
370
           0
  6
Continuous
 62
           7
100
AcDbCircle
 10
-1.28125
 20
2.483750000012
 30
0.0
 40
0.34375
100
AcDbArc
 50
90.0
 51
270.0
1001
TCAD
1000
TCW_CUSTOM_DATA
1002
{
1000
#$AUX@_ToolInfo Properties
1070
           8
1000
Insert^JArc^JTanToEntities@Arc TanToEntities
1002
}
  0
ARC
  5
107
100
AcDbEntity
  8
Exterior View
370
           0
  6
Continuous
 62
           7
100
AcDbCircle
 10
1.28125
 20
2.483750000012
 30
0.0
 40
0.34375
100
AcDbArc
 50
-90.0
 51
89.999997741129
1001
TCAD
1000
TCW_CUSTOM_DATA
1002
{
1000
#$AUX@_ToolInfo Properties
1070
           8
1000
Insert^JArc^JTanToEntities@Arc TanToEntities
1002
}
  0
LINE
  5
108
100
AcDbEntity
  8
Exterior View
370
           0
  6
Continuous
 62
           7
100
AcDbLine
 10
-1.281250011176
 20
2.858750000012
 30
0.0
 11
1.28125
 21
2.858750000012
 31
0.0
1001
TCAD
1000
TCW_CUSTOM_DATA
1002
{
1000
#$AUX@_ToolInfo Properties
1070
           8
1000
Insert^JLine^JLine2Arcs@Line Line2Arcs
1002
}
  0
LINE
  5
109
100
AcDbEntity
  8
Exterior View
370
           0
  6
Continuous
 62
           7
100
AcDbLine
 10
-0.312499993224
 20
1.858750000012
 30
0.0
 11
0.312500006776
 21
1.858750000012
 31
0.0
1001
TCAD
1000
TCW_CUSTOM_DATA
1002
{
1000
#$AUX@_ToolInfo Properties
1070
           8
1000
Insert^JLine^JPerpendicular@Line Perpendicular
1002
}
  0
ARC
  5
10A
100
AcDbEntity
  8
Exterior View
370
           0
  6
Continuous
 62
           7
100
AcDbCircle
 10
-1.28125
 20
2.483750000012
 30
0.0
 40
0.375
100
AcDbArc
 50
90.0
 51
256.15376287835
1001
TCAD
1000
TCW_CUSTOM_DATA
1002
{
1000
#$AUX@_ToolInfo Properties
1070
           8
1000
Insert^JCircle^JCenterAndPoint@Circle CenterAndPoint
1002
}
  0
ARC
  5
10B
100
AcDbEntity
  8
Exterior View
370
           0
  6
Continuous
 62
           7
100
AcDbCircle
 10
1.28125
 20
2.483750000012
 30
0.0
 40
0.375
100
AcDbArc
 50
-76.153762707896
 51
90.0
1001
TCAD
1000
TCW_CUSTOM_DATA
1002
{
1000
#$AUX@_ToolInfo Properties
1070
           8
1000
Insert^JCircle^JCenterAndPoint@Circle CenterAndPoint
1002
}
  0
LINE
  5
10C
100
AcDbEntity
  8
Exterior View
370
           0
  6
Continuous
 62
           7
100
AcDbLine
 10
-1.370993903307
 20
2.119646948914
 30
0.0
 11
-0.312499993224
 21
1.858750000012
 31
0.0
1001
TCAD
1000
TCW_CUSTOM_DATA
1002
{
1000
#$AUX@_ToolInfo Properties
1070
           8
1000
Insert^JLine^JTanFromArc@Line TanFromArc
1002
}
  0
LINE
  5
10D
100
AcDbEntity
  8
Exterior View
370
           0
  6
Continuous
 62
           7
100
AcDbLine
 10
1.37099390439
 20
2.119646949181
 30
0.0
 11
0.312500006776
 21
1.858750000012
 31
0.0
1001
TCAD
1000
TCW_CUSTOM_DATA
1002
{
1000
#$AUX@_ToolInfo Properties
1070
           8
1000
Insert^JLine^JTanFromArc@Line TanFromArc
1002
}
  0
LINE
  5
10E
100
AcDbEntity
  8
Exterior View
370
           0
  6
Continuous
 62
           7
100
AcDbLine
 10
-1.28125
 20
6.269409815319
 30
0.0
 11
1.281250013552
 21
6.269409815319
 31
0.0
1001
TCAD
1000
TCW_CUSTOM_DATA
1002
{
1000
#$AUX@_ToolInfo Properties
1070
           8
1000
Insert^JLine^JSingle@Line Single
1002
}
  0
LINE
  5
10F
100
AcDbEntity
  8
Exterior View
370
           0
  6
Continuous
 62
           7
100
AcDbLine
 10
-1.28125
 20
5.581909815319
 30
0.0
 11
1.281249986448
 21
5.581909815319
 31
0.0
1001
TCAD
1000
TCW_CUSTOM_DATA
1002
{
1000
#$AUX@_ToolInfo Properties
1070
           8
1000
Insert^JLine^JPerpendicular@Line Perpendicular
1002
}
  0
ARC
  5
110
100
AcDbEntity
  8
Exterior View
370
           0
  6
Continuous
 62
           7
100
AcDbCircle
 10
-1.03125
 20
5.925659815319
 30
0.0
 40
0.34375
100
AcDbArc
 50
90.0
 51
270.0
1001
TCAD
1000
TCW_CUSTOM_DATA
1002
{
1000
#$AUX@_ToolInfo Properties
1070
           8
1000
Insert^JArc^JTanToEntities@Arc TanToEntities
1002
}
  0
ARC
  5
111
100
AcDbEntity
  8
Exterior View
370
           0
  6
Continuous
 62
           7
100
AcDbCircle
 10
1.03125
 20
5.925659815319
 30
0.0
 40
0.34375
100
AcDbArc
 50
-90.0
 51
89.999999146226
1001
TCAD
1000
TCW_CUSTOM_DATA
1002
{
1000
#$AUX@_ToolInfo Properties
1070
           8
1000
Insert^JArc^JTanToEntities@Arc TanToEntities
1002
}
  0
ARC
  5
112
100
AcDbEntity
  8
Exterior View
370
           0
  6
Continuous
 62
           7
100
AcDbCircle
 10
-1.28125
 20
5.925659815319
 30
0.0
 40
0.34375
100
AcDbArc
 50
90.0
 51
270.0
1001
TCAD
1000
TCW_CUSTOM_DATA
1002
{
1000
#$AUX@_ToolInfo Properties
1070
           8
1000
Insert^JArc^JTanToEntities@Arc TanToEntities
1002
}
  0
ARC
  5
113
100
AcDbEntity
  8
Exterior View
370
           0
  6
Continuous
 62
           7
100
AcDbCircle
 10
1.28125
 20
5.925659815319
 30
0.0
 40
0.34375
100
AcDbArc
 50
-90.0
 51
89.999997741129
1001
TCAD
1000
TCW_CUSTOM_DATA
1002
{
1000
#$AUX@_ToolInfo Properties
1070
           8
1000
Insert^JArc^JTanToEntities@Arc TanToEntities
1002
}
  0
LINE
  5
114
100
AcDbEntity
  8
Exterior View
370
           0
  6
Continuous
 62
           7
100
AcDbLine
 10
-1.281250011176
 20
6.300659815319
 30
0.0
 11
1.28125
 21
6.300659815319
 31
0.0
1001
TCAD
1000
TCW_CUSTOM_DATA
1002
{
1000
#$AUX@_ToolInfo Properties
1070
           8
1000
Insert^JLine^JLine2Arcs@Line Line2Arcs
1002
}
  0
LINE
  5
115
100
AcDbEntity
  8
Exterior View
370
           0
  6
Continuous
 62
           7
100
AcDbLine
 10
-0.312499993224
 20
5.300659815319
 30
0.0
 11
0.312500006776
 21
5.300659815319
 31
0.0
1001
TCAD
1000
TCW_CUSTOM_DATA
1002
{
1000
#$AUX@_ToolInfo Properties
1070
           8
1000
Insert^JLine^JPerpendicular@Line Perpendicular
1002
}
  0
ARC
  5
116
100
AcDbEntity
  8
Exterior View
370
           0
  6
Continuous
 62
           7
100
AcDbCircle
 10
-1.28125
 20
5.925659815319
 30
0.0
 40
0.375
100
AcDbArc
 50
90.0
 51
256.153762878352
1001
TCAD
1000
TCW_CUSTOM_DATA
1002
{
1000
#$AUX@_ToolInfo Properties
1070
           8
1000
Insert^JCircle^JCenterAndPoint@Circle CenterAndPoint
1002
}
  0
ARC
  5
117
100
AcDbEntity
  8
Exterior View
370
           0
  6
Continuous
 62
           7
100
AcDbCircle
 10
1.28125
 20
5.925659815319
 30
0.0
 40
0.375
100
AcDbArc
 50
-76.153762707894
 51
90.0
1001
TCAD
1000
TCW_CUSTOM_DATA
1002
{
1000
#$AUX@_ToolInfo Properties
1070
           8
1000
Insert^JCircle^JCenterAndPoint@Circle CenterAndPoint
1002
}
  0
LINE
  5
118
100
AcDbEntity
  8
Exterior View
370
           0
  6
Continuous
 62
           7
100
AcDbLine
 10
-1.370993903307
 20
5.561556764221
 30
0.0
 11
-0.312499993224
 21
5.300659815319
 31
0.0
1001
TCAD
1000
TCW_CUSTOM_DATA
1002
{
1000
#$AUX@_ToolInfo Properties
1070
           8
1000
Insert^JLine^JTanFromArc@Line TanFromArc
1002
}
  0
LINE
  5
119
100
AcDbEntity
  8
Exterior View
370
           0
  6
Continuous
 62
           7
100
AcDbLine
 10
1.37099390439
 20
5.561556764488
 30
0.0
 11
0.312500006776
 21
5.300659815319
 31
0.0
1001
TCAD
1000
TCW_CUSTOM_DATA
1002
{
1000
#$AUX@_ToolInfo Properties
1070
           8
1000
Insert^JLine^JTanFromArc@Line TanFromArc
1002
}
  0
ARC
  5
11A
100
AcDbEntity
  8
Hidden
370
           0
  6
HIDDEN
 62
           7
 48
0.20000000298
100
AcDbCircle
 10
4.088240351362
 20
-0.496183369748
 30
0.0
 40
0.75
100
AcDbArc
 50
-113.318651510366
 51
-10.128611590659
  0
ARC
  5
11B
100
AcDbEntity
  8
Hidden
370
           0
  6
HIDDEN
 62
           7
 48
0.20000000298
100
AcDbCircle
 10
2.730681959368
 20
0.088997583726
 30
0.0
 40
0.75
100
AcDbArc
 50
180.0
 51
246.681349343408
  0
LINE
  5
11C
100
AcDbEntity
  8
Hidden
370
           0
  6
HIDDEN
 62
           7
 48
0.20000000298
100
AcDbLine
 10
2.433798621859
 20
-0.599740598684
 30
0.0
 11
3.791357013854
 21
-1.184921552159
 31
0.0
1001
TCAD
1000
TCW_CUSTOM_DATA
1002
{
1000
#$AUX@_ToolInfo Properties
1070
           8
1000
Insert^JLine^JLine2Arcs@Line Line2Arcs
1002
}
  0
LINE
  5
11D
100
AcDbEntity
  8
Exterior View
370
           0
  6
Continuous
 62
           7
100
AcDbLine
 10
-1.0
 20
0.000000000012
 30
0.0
 11
-1.0
 21
1.187499986907
 31
0.0
1001
TCAD
1000
TCW_CUSTOM_DATA
1002
{
1000
#$AUX@_ToolInfo Properties
1070
           8
1000
Insert^JLine^JPerpendicular@Line Perpendicular
1002
}
  0
LINE
  5
11E
100
AcDbEntity
  8
Exterior View
370
           0
  6
Continuous
 62
           7
100
AcDbLine
 10
1.0
 20
0.000000000012
 30
0.0
 11
1.0
 21
1.187499986907
 31
0.0
1001
TCAD
1000
TCW_CUSTOM_DATA
1002
{
1000
#$AUX@_ToolInfo Properties
1070
           8
1000
Insert^JLine^JPerpendicular@Line Perpendicular
1002
}
  0
LINE
  5
11F
100
AcDbEntity
  8
Exterior View
370
           0
  6
Continuous
 62
           7
100
AcDbLine
 10
-1.0
 20
0.065000000012
 30
0.0
 11
1.0
 21
0.065000000012
 31
0.0
1001
TCAD
1000
TCW_CUSTOM_DATA
1002
{
1000
#$AUX@_ToolInfo Properties
1070
           8
1000
Insert^JLine^JPerpendicular@Line Perpendicular
1002
}
  0
LINE
  5
120
100
AcDbEntity
  8
Exterior View
370
           0
  6
Continuous
 62
           7
100
AcDbLine
 10
1.709857483137
 20
23.03315981532
 30
-0.000000130632
 11
2.915142516863
 21
23.03315981532
 31
-0.000000130632
1001
TCAD
1000
TCW_CUSTOM_DATA
1002
{
1000
#$AUX@_ToolInfo Properties
1070
           8
1000
Insert^JLine^JSingle@Line Single
1002
}
  0
LINE
  5
121
100
AcDbEntity
  8
Exterior View
370
           0
  6
Continuous
 62
           7
100
AcDbLine
 10
2.9375
 20
23.18079751804
 30
-0.000000130632
 11
2.9375
 21
23.25315981532
 31
-0.000000130632
1001
TCAD
1000
TCW_CUSTOM_DATA
1002
{
1000
#$AUX@_ToolInfo Properties
1070
           8
1000
Insert^JLine^JPerpendicular@Line Perpendicular
1002
}
  0
LINE
  5
122
100
AcDbEntity
  8
Exterior View
370
           0
  6
Continuous
 62
           7
100
AcDbLine
 10
8.542908176053
 20
6.269409815319
 30
-0.000000130625
 11
8.278755111272
 21
6.269409815319
 31
0.0
1001
TCAD
1000
TCW_CUSTOM_DATA
1002
{
1000
#$AUX@_ToolInfo Properties
1070
           8
1000
Insert^JLine^JPerpendicular@Line Perpendicular
1002
}
  0
LINE
  5
123
100
AcDbEntity
  8
Exterior View
370
           0
  6
Continuous
 62
           7
100
AcDbLine
 10
8.542908176053
 20
5.581909815319
 30
-0.000000130625
 11
8.278755111272
 21
5.581909815319
 31
0.0
1001
TCAD
1000
TCW_CUSTOM_DATA
1002
{
1000
#$AUX@_ToolInfo Properties
1070
           8
1000
Insert^JLine^JPerpendicular@Line Perpendicular
1002
}
  0
LINE
  5
124
100
AcDbEntity
  8
Exterior View
370
           0
  6
Continuous
 62
           7
100
AcDbLine
 10
8.542908176053
 20
2.827500000012
 30
-0.000000130625
 11
8.256817958222
 21
2.827500000012
 31
0.0
1001
TCAD
1000
TCW_CUSTOM_DATA
1002
{
1000
#$AUX@_ToolInfo Properties
1070
           8
1000
Insert^JLine^JPerpendicular@Line Perpendicular
1002
}
  0
LINE
  5
125
100
AcDbEntity
  8
Exterior View
370
           0
  6
Continuous
 62
           7
100
AcDbLine
 10
8.542908176053
 20
2.140000000012
 30
-0.000000130625
 11
8.256817958222
 21
2.140000000012
 31
0.0
1001
TCAD
1000
TCW_CUSTOM_DATA
1002
{
1000
#$AUX@_ToolInfo Properties
1070
           8
1000
Insert^JLine^JPerpendicular@Line Perpendicular
1002
}
  0
LINE
  5
126
100
AcDbEntity
  8
Hidden
370
           0
  6
HIDDEN
 62
           7
 48
0.20000000298
100
AcDbLine
 10
8.542908176053
 20
6.269409815319
 30
-0.000000130625
 11
9.153755111272
 21
6.269409815319
 31
0.0
1001
TCAD
1000
TCW_CUSTOM_DATA
1002
{
1000
#$AUX@_ToolInfo Properties
1070
           8
1000
Insert^JLine^JPerpendicular@Line Perpendicular
1002
}
  0
LINE
  5
127
100
AcDbEntity
  8
Hidden
370
           0
  6
HIDDEN
 62
           7
 48
0.20000000298
100
AcDbLine
 10
8.542908176053
 20
5.581909815319
 30
-0.000000130625
 11
9.153755111272
 21
5.581909815319
 31
0.0
1001
TCAD
1000
TCW_CUSTOM_DATA
1002
{
1000
#$AUX@_ToolInfo Properties
1070
           8
1000
Insert^JLine^JPerpendicular@Line Perpendicular
1002
}
  0
LINE
  5
128
100
AcDbEntity
  8
Hidden
370
           0
  6
HIDDEN
 62
           7
 48
0.20000000298
100
AcDbLine
 10
9.153755111272
 20
6.269409815319
 30
0.0
 11
9.153755111272
 21
5.581909815319
 31
0.0
1001
TCAD
1000
TCW_CUSTOM_DATA
1002
{
1000
#$AUX@_ToolInfo Properties
1070
           8
1000
Insert^JLine^JPerpendicular@Line Perpendicular
1002
}
  0
LINE
  5
129
100
AcDbEntity
  8
Hidden
370
           0
  6
HIDDEN
 62
           7
 48
0.20000000298
100
AcDbLine
 10
8.542908176053
 20
6.300659815319
 30
-0.000000130625
 11
9.278755111272
 21
6.300659815319
 31
0.0
1001
TCAD
1000
TCW_CUSTOM_DATA
1002
{
1000
#$AUX@_ToolInfo Properties
1070
           8
1000
Insert^JLine^JPerpendicular@Line Perpendicular
1002
}
  0
LINE
  5
12A
100
AcDbEntity
  8
Hidden
370
           0
  6
HIDDEN
 62
           7
 48
0.20000000298
100
AcDbLine
 10
8.542908176053
 20
5.300659815319
 30
-0.000000130625
 11
9.278755111272
 21
5.300659815319
 31
0.0
1001
TCAD
1000
TCW_CUSTOM_DATA
1002
{
1000
#$AUX@_ToolInfo Properties
1070
           8
1000
Insert^JLine^JPerpendicular@Line Perpendicular
1002
}
  0
LINE
  5
12B
100
AcDbEntity
  8
Hidden
370
           0
  6
HIDDEN
 62
           7
 48
0.20000000298
100
AcDbLine
 10
8.542908176053
 20
2.827500000012
 30
-0.000000130625
 11
9.153755111272
 21
2.827500000012
 31
0.0
1001
TCAD
1000
TCW_CUSTOM_DATA
1002
{
1000
#$AUX@_ToolInfo Properties
1070
           8
1000
Insert^JLine^JPerpendicular@Line Perpendicular
1002
}
  0
LINE
  5
12C
100
AcDbEntity
  8
Hidden
370
           0
  6
HIDDEN
 62
           7
 48
0.20000000298
100
AcDbLine
 10
8.542908176053
 20
2.140000000012
 30
-0.000000130625
 11
9.153755111272
 21
2.140000000012
 31
0.0
1001
TCAD
1000
TCW_CUSTOM_DATA
1002
{
1000
#$AUX@_ToolInfo Properties
1070
           8
1000
Insert^JLine^JPerpendicular@Line Perpendicular
1002
}
  0
LINE
  5
12D
100
AcDbEntity
  8
Hidden
370
           0
  6
HIDDEN
 62
           7
 48
0.20000000298
100
AcDbLine
 10
9.153755111272
 20
2.827500000012
 30
0.0
 11
9.153755111272
 21
2.140000000012
 31
0.0
1001
TCAD
1000
TCW_CUSTOM_DATA
1002
{
1000
#$AUX@_ToolInfo Properties
1070
           8
1000
Insert^JLine^JPerpendicular@Line Perpendicular
1002
}
  0
LINE
  5
12E
100
AcDbEntity
  8
Hidden
370
           0
  6
HIDDEN
 62
           7
 48
0.20000000298
100
AcDbLine
 10
8.542908176053
 20
2.858750000012
 30
-0.000000130625
 11
9.278755111272
 21
2.858750000012
 31
0.0
1001
TCAD
1000
TCW_CUSTOM_DATA
1002
{
1000
#$AUX@_ToolInfo Properties
1070
           8
1000
Insert^JLine^JPerpendicular@Line Perpendicular
1002
}
  0
LINE
  5
12F
100
AcDbEntity
  8
Hidden
370
           0
  6
HIDDEN
 62
           7
 48
0.20000000298
100
AcDbLine
 10
8.542908176053
 20
1.858750000012
 30
-0.000000130625
 11
9.278755111272
 21
1.858750000012
 31
0.0
1001
TCAD
1000
TCW_CUSTOM_DATA
1002
{
1000
#$AUX@_ToolInfo Properties
1070
           8
1000
Insert^JLine^JPerpendicular@Line Perpendicular
1002
}
  0
LINE
  5
130
100
AcDbEntity
  8
Hidden
370
           0
  6
HIDDEN
 62
           7
 48
0.20000000298
100
AcDbLine
 10
-0.687500000039
 20
6.782532919725
 30
0.0
 11
-0.687500000039
 21
7.532532919725
 31
0.0
1001
TCAD
1000
TCW_CUSTOM_DATA
1002
{
1000
#$AUX@_ToolInfo Properties
1070
           8
1000
Insert^JLine^JPerpendicular@Line Perpendicular
1002
}
  0
ARC
  5
131
100
AcDbEntity
  8
Hidden
370
           0
  6
HIDDEN
 62
           7
 48
0.20000000298
100
AcDbCircle
 10
-0.437500000039
 20
7.157532919725
 30
0.0
 40
0.375
100
AcDbArc
 50
-131.810314895778
 51
-48.189685104222
  0
ARC
  5
132
100
AcDbEntity
  8
Hidden
370
           0
  6
HIDDEN
 62
           7
 48
0.20000000298
100
AcDbCircle
 10
-0.437500000039
 20
7.157532919725
 30
0.0
 40
0.375
100
AcDbArc
 50
48.189685104221
 51
131.810314895779
  0
LINE
  5
133
100
AcDbEntity
  8
Hidden
370
           0
  6
HIDDEN
 62
           7
 48
0.20000000298
100
AcDbLine
 10
-0.187500000039
 20
6.782532919725
 30
0.000000182879
 11
-0.187500000039
 21
7.532532919725
 31
0.000000182879
1001
TCAD
1000
TCW_CUSTOM_DATA
1002
{
1000
#$AUX@_ToolInfo Properties
1070
           8
1000
Insert^JLine^JPerpendicular@Line Perpendicular
1002
}
  0
ARC
  5
134
100
AcDbEntity
  8
Hidden
370
           0
  6
HIDDEN
 62
           7
 48
0.20000000298
100
AcDbCircle
 10
0.437499999961
 20
7.157532919725
 30
0.0
 40
0.375
100
AcDbArc
 50
-131.810314895777
 51
-48.189685104223
  0
ARC
  5
135
100
AcDbEntity
  8
Hidden
370
           0
  6
HIDDEN
 62
           7
 48
0.20000000298
100
AcDbCircle
 10
0.437499999961
 20
7.157532919725
 30
0.0
 40
0.375
100
AcDbArc
 50
48.189685104221
 51
131.810314895779
  0
ARC
  5
136
100
AcDbEntity
  8
Hidden
370
           0
  6
HIDDEN
 62
           7
 48
0.20000000298
100
AcDbCircle
 10
0.406228668683
 20
8.687282489565
 30
0.0
 40
0.375
100
AcDbArc
 50
-131.810314895777
 51
-48.189685104223
  0
ARC
  5
137
100
AcDbEntity
  8
Hidden
370
           0
  6
HIDDEN
 62
           7
 48
0.20000000298
100
AcDbCircle
 10
0.406228668683
 20
8.687282489565
 30
0.0
 40
0.375
100
AcDbArc
 50
48.189685104221
 51
131.810314895779
  0
ARC
  5
138
100
AcDbEntity
  8
Hidden
370
           0
  6
HIDDEN
 62
           7
 48
0.20000000298
100
AcDbCircle
 10
-0.382227985563
 20
8.918842362286
 30
0.0
 40
0.375
100
AcDbArc
 50
-131.810314895778
 51
-48.189685104222
  0
ARC
  5
139
100
AcDbEntity
  8
Hidden
370
           0
  6
HIDDEN
 62
           7
 48
0.20000000298
100
AcDbCircle
 10
-0.382227985563
 20
8.918842362286
 30
0.0
 40
0.375
100
AcDbArc
 50
48.189685104222
 51
131.810314895778
  0
LINE
  5
13A
100
AcDbEntity
  8
Exterior View
370
           0
  6
Continuous
 62
           7
100
AcDbLine
 10
8.480408176053
 20
23.24315981532
 30
-0.000000130642
 11
8.246408176053
 21
23.24315981532
 31
-0.000000130642
1001
TCAD
1000
TCW_CUSTOM_DATA
1002
{
1000
#$AUX@_ToolInfo Properties
1070
           8
1000
Insert^JLine^JPerpendicular@Line Perpendicular
1002
}
  0
LINE
  5
13B
100
AcDbEntity
  8
Exterior View
370
           0
  6
Continuous
 62
           7
100
AcDbLine
 10
8.246408176053
 20
23.24315981532
 30
-0.000000130642
 11
8.183908176053
 21
23.24315981532
 31
-0.000000130642
1001
TCAD
1000
TCW_CUSTOM_DATA
1002
{
1000
#$AUX@_ToolInfo Properties
1070
           8
1000
Insert^JLine^JSingle@Line Single
1002
}
  0
LINE
  5
13C
100
AcDbEntity
  8
Exterior View
370
           0
  6
Continuous
 62
           7
100
AcDbLine
 10
8.183908176053
 20
23.367371851422
 30
-0.000000130642
 11
8.183908176053
 21
23.24315981532
 31
-0.000000130642
1001
TCAD
1000
TCW_CUSTOM_DATA
1002
{
1000
#$AUX@_ToolInfo Properties
1070
           8
1000
Insert^JLine^JSingle@Line Single
1002
}
  0
ELLIPSE
  5
13D
100
AcDbEntity
  8
Exterior View
370
           0
  6
Continuous
 62
           7
100
AcDbEllipse
 10
10.742361040834
 20
10.122123570096
 30
0.0
 11
0.0000000000000001
 21
-2.0316065625240838
 31
0.0
210
0.0
220
0.0
230
1.0
 40
0.828208699883
 41
-1.5431847163031462
 42
-1.2103213202747511
1001
TCAD
1000
TCW_CUSTOM_DATA
1002
{
1000
#$AUX@_ToolInfo Properties
1070
           8
1000
Insert^JArc^JTriplePoint132@Arc TriplePoint132
1002
}
  0
LINE
  5
13E
100
AcDbEntity
  8
Exterior View
370
           0
  6
Continuous
 62
           7
100
AcDbLine
 10
8.480408176053
 20
6.33665981532
 30
-0.000000130625
 11
8.270408176053
 21
6.33665981532
 31
0.0
1001
TCAD
1000
TCW_CUSTOM_DATA
1002
{
1000
#$AUX@_ToolInfo Properties
1070
           8
1000
Insert^JLine^JPerpendicular@Line Perpendicular
1002
}
  0
LINE
  5
13F
100
AcDbEntity
  8
Hidden
370
           0
  6
HIDDEN
 62
           7
 48
0.20000000298
100
AcDbLine
 10
8.542908176053
 20
6.64915981532
 30
-0.000000130625
 11
9.167384811202
 21
6.64915981532
 31
0.0
1001
TCAD
1000
TCW_CUSTOM_DATA
1002
{
1000
#$AUX@_ToolInfo Properties
1070
           8
1000
Insert^JLine^JPerpendicular@Line Perpendicular
1002
}
  0
LINE
  5
140
100
AcDbEntity
  8
Hidden
370
           0
  6
HIDDEN
 62
           7
 48
0.20000000298
100
AcDbLine
 10
8.480408176053
 20
7.532532919725
 30
0.0
 11
8.542908176053
 21
7.532532919725
 31
0.000000182883
1001
TCAD
1000
TCW_CUSTOM_DATA
1002
{
1000
#$AUX@_ToolInfo Properties
1070
           8
1000
Insert^JLine^JPerpendicular@Line Perpendicular
1002
}
  0
LINE
  5
141
100
AcDbEntity
  8
Hidden
370
           0
  6
HIDDEN
 62
           7
 48
0.20000000298
100
AcDbLine
 10
8.480408176053
 20
6.782532919725
 30
0.0
 11
8.542908176053
 21
6.782532919725
 31
0.000000182883
1001
TCAD
1000
TCW_CUSTOM_DATA
1002
{
1000
#$AUX@_ToolInfo Properties
1070
           8
1000
Insert^JLine^JPerpendicular@Line Perpendicular
1002
}
  0
LINE
  5
142
100
AcDbEntity
  8
Hidden
370
           0
  6
HIDDEN
 62
           7
 48
0.20000000298
100
AcDbLine
 10
8.824158176053
 20
7.041532919725
 30
0.000000182883
 11
8.824158176053
 21
7.273532919725
 31
0.000000182883
1001
TCAD
1000
TCW_CUSTOM_DATA
1002
{
1000
#$AUX@_ToolInfo Properties
1070
           8
1000
Insert^JLine^JPerpendicular@Line Perpendicular
1002
}
  0
LINE
  5
143
100
AcDbEntity
  8
Hidden
370
           0
  6
HIDDEN
 62
           7
 48
0.20000000298
100
AcDbLine
 10
8.542908176053
 20
7.041532919725
 30
0.000000182883
 11
8.824158176053
 21
7.041532919725
 31
0.000000182883
1001
TCAD
1000
TCW_CUSTOM_DATA
1002
{
1000
#$AUX@_ToolInfo Properties
1070
           8
1000
Insert^JLine^JPerpendicular@Line Perpendicular
1002
}
  0
LINE
  5
144
100
AcDbEntity
  8
Hidden
370
           0
  6
HIDDEN
 62
           7
 48
0.20000000298
100
AcDbLine
 10
8.542908176053
 20
7.273532919725
 30
0.000000182883
 11
8.824158176053
 21
7.273532919725
 31
0.000000182883
1001
TCAD
1000
TCW_CUSTOM_DATA
1002
{
1000
#$AUX@_ToolInfo Properties
1070
           8
1000
Insert^JLine^JPerpendicular@Line Perpendicular
1002
}
  0
LINE
  5
145
100
AcDbEntity
  8
Hidden
370
           0
  6
HIDDEN
 62
           7
 48
0.20000000298
100
AcDbLine
 10
8.504908176053
 20
7.532532919725
 30
0.000000182883
 11
8.504908176053
 21
6.782532919725
 31
0.000000182883
1001
TCAD
1000
TCW_CUSTOM_DATA
1002
{
1000
#$AUX@_ToolInfo Properties
1070
           8
1000
Insert^JLine^JPerpendicular@Line Perpendicular
1002
}
  0
LINE
  5
146
100
AcDbEntity
  8
Hidden
370
           0
  6
HIDDEN
 62
           7
 48
0.20000000298
100
AcDbLine
 10
8.480408176053
 20
9.062282489565
 30
0.0
 11
8.542908176053
 21
9.062282489565
 31
0.000000182883
1001
TCAD
1000
TCW_CUSTOM_DATA
1002
{
1000
#$AUX@_ToolInfo Properties
1070
           8
1000
Insert^JLine^JPerpendicular@Line Perpendicular
1002
}
  0
LINE
  5
147
100
AcDbEntity
  8
Hidden
370
           0
  6
HIDDEN
 62
           7
 48
0.20000000298
100
AcDbLine
 10
8.480408176053
 20
8.312282489565
 30
0.0
 11
8.542908176053
 21
8.312282489565
 31
0.000000182883
1001
TCAD
1000
TCW_CUSTOM_DATA
1002
{
1000
#$AUX@_ToolInfo Properties
1070
           8
1000
Insert^JLine^JPerpendicular@Line Perpendicular
1002
}
  0
LINE
  5
148
100
AcDbEntity
  8
Hidden
370
           0
  6
HIDDEN
 62
           7
 48
0.20000000298
100
AcDbLine
 10
8.824158176053
 20
8.571282489565
 30
0.000000182883
 11
8.824158176053
 21
8.803282489565
 31
0.000000182883
1001
TCAD
1000
TCW_CUSTOM_DATA
1002
{
1000
#$AUX@_ToolInfo Properties
1070
           8
1000
Insert^JLine^JPerpendicular@Line Perpendicular
1002
}
  0
LINE
  5
149
100
AcDbEntity
  8
Hidden
370
           0
  6
HIDDEN
 62
           7
 48
0.20000000298
100
AcDbLine
 10
8.542908176053
 20
8.571282489565
 30
0.000000182883
 11
8.824158176053
 21
8.571282489565
 31
0.000000182883
1001
TCAD
1000
TCW_CUSTOM_DATA
1002
{
1000
#$AUX@_ToolInfo Properties
1070
           8
1000
Insert^JLine^JPerpendicular@Line Perpendicular
1002
}
  0
LINE
  5
14A
100
AcDbEntity
  8
Hidden
370
           0
  6
HIDDEN
 62
           7
 48
0.20000000298
100
AcDbLine
 10
8.542908176053
 20
8.803282489565
 30
0.000000182883
 11
8.824158176053
 21
8.803282489565
 31
0.000000182883
1001
TCAD
1000
TCW_CUSTOM_DATA
1002
{
1000
#$AUX@_ToolInfo Properties
1070
           8
1000
Insert^JLine^JPerpendicular@Line Perpendicular
1002
}
  0
LINE
  5
14B
100
AcDbEntity
  8
Hidden
370
           0
  6
HIDDEN
 62
           7
 48
0.20000000298
100
AcDbLine
 10
8.504908176053
 20
9.062282489565
 30
0.000000182883
 11
8.504908176053
 21
8.312282489565
 31
0.000000182883
1001
TCAD
1000
TCW_CUSTOM_DATA
1002
{
1000
#$AUX@_ToolInfo Properties
1070
           8
1000
Insert^JLine^JPerpendicular@Line Perpendicular
1002
}
  0
LINE
  5
14C
100
AcDbEntity
  8
Exterior View
370
           0
  6
Continuous
 62
           7
100
AcDbLine
 10
9.167908176045
 20
9.405537841632
 30
-0.000000130642
 11
9.167908176045
 21
9.202430341474
 31
-0.000000130642
  0
LINE
  5
14D
100
AcDbEntity
  8
Hidden
370
           0
  6
HIDDEN
 62
           7
 48
0.20000000298
100
AcDbLine
 10
9.167908176045
 20
9.202430341474
 30
-0.000000130642
 11
9.167908176045
 21
6.64915981532
 31
-0.000000130642
  0
LINE
  5
14E
100
AcDbEntity
  8
Exterior View
370
           0
  6
Continuous
 62
           7
100
AcDbLine
 10
8.270408176053
 20
6.33665981532
 30
0.0
 11
8.270408176053
 21
23.24315981532
 31
0.0
1001
TCAD
1000
TCW_CUSTOM_DATA
1002
{
1000
#$AUX@_ToolInfo Properties
1070
           8
1000
Insert^JLine^JPerpendicular@Line Perpendicular
1002
}
  0
ARC
  5
14F
100
AcDbEntity
  8
Exterior View
370
           0
  6
Continuous
 62
           7
100
AcDbCircle
 10
8.272977620498
 20
21.99315981532
 30
-0.000000130642
 40
0.047569444444
100
AcDbArc
 50
93.096315397927
 51
266.903684602071
1001
TCAD
1000
TCW_CUSTOM_DATA
1002
{
1000
#$AUX@_ToolInfo Properties
1070
           8
1000
Insert^JArc^JTriplePoint132@Arc TriplePoint132
1002
}
  0
ARC
  5
150
100
AcDbEntity
  8
Exterior View
370
           0
  6
Continuous
 62
           7
100
AcDbCircle
 10
8.272977620498
 20
20.81315981532
 30
-0.000000130642
 40
0.047569444444
100
AcDbArc
 50
93.096315397992
 51
266.903684602008
1001
TCAD
1000
TCW_CUSTOM_DATA
1002
{
1000
#$AUX@_ToolInfo Properties
1070
           8
1000
Insert^JArc^JTriplePoint132@Arc TriplePoint132
1002
}
  0
ARC
  5
151
100
AcDbEntity
  8
Exterior View
370
           0
  6
Continuous
 62
           7
100
AcDbCircle
 10
8.272977620498
 20
19.70015981532
 30
-0.000000130642
 40
0.047569444444
100
AcDbArc
 50
93.096315397928
 51
266.903684602072
1001
TCAD
1000
TCW_CUSTOM_DATA
1002
{
1000
#$AUX@_ToolInfo Properties
1070
           8
1000
Insert^JArc^JTriplePoint132@Arc TriplePoint132
1002
}
  0
ARC
  5
152
100
AcDbEntity
  8
Exterior View
370
           0
  6
Continuous
 62
           7
100
AcDbCircle
 10
8.272977620498
 20
18.64915981532
 30
-0.000000130642
 40
0.047569444444
100
AcDbArc
 50
93.096315397992
 51
266.903684602008
1001
TCAD
1000
TCW_CUSTOM_DATA
1002
{
1000
#$AUX@_ToolInfo Properties
1070
           8
1000
Insert^JArc^JTriplePoint132@Arc TriplePoint132
1002
}
  0
ARC
  5
153
100
AcDbEntity
  8
Exterior View
370
           0
  6
Continuous
 62
           7
100
AcDbCircle
 10
8.272977620498
 20
17.65715981532
 30
-0.000000130642
 40
0.047569444444
100
AcDbArc
 50
93.096315397992
 51
266.903684602008
1001
TCAD
1000
TCW_CUSTOM_DATA
1002
{
1000
#$AUX@_ToolInfo Properties
1070
           8
1000
Insert^JArc^JTriplePoint132@Arc TriplePoint132
1002
}
  0
ARC
  5
154
100
AcDbEntity
  8
Exterior View
370
           0
  6
Continuous
 62
           7
100
AcDbCircle
 10
8.272977620498
 20
16.72015981532
 30
-0.000000130642
 40
0.047569444444
100
AcDbArc
 50
93.096315397992
 51
266.903684602008
1001
TCAD
1000
TCW_CUSTOM_DATA
1002
{
1000
#$AUX@_ToolInfo Properties
1070
           8
1000
Insert^JArc^JTriplePoint132@Arc TriplePoint132
1002
}
  0
ARC
  5
155
100
AcDbEntity
  8
Exterior View
370
           0
  6
Continuous
 62
           7
100
AcDbCircle
 10
8.272977620498
 20
15.83615981532
 30
-0.000000130642
 40
0.047569444444
100
AcDbArc
 50
93.096315397992
 51
266.903684602008
1001
TCAD
1000
TCW_CUSTOM_DATA
1002
{
1000
#$AUX@_ToolInfo Properties
1070
           8
1000
Insert^JArc^JTriplePoint132@Arc TriplePoint132
1002
}
  0
ARC
  5
156
100
AcDbEntity
  8
Exterior View
370
           0
  6
Continuous
 62
           7
100
AcDbCircle
 10
8.272977620498
 20
15.00215981532
 30
-0.000000130642
 40
0.047569444444
100
AcDbArc
 50
93.096315397927
 51
266.903684602072
1001
TCAD
1000
TCW_CUSTOM_DATA
1002
{
1000
#$AUX@_ToolInfo Properties
1070
           8
1000
Insert^JArc^JTriplePoint132@Arc TriplePoint132
1002
}
  0
ARC
  5
157
100
AcDbEntity
  8
Exterior View
370
           0
  6
Continuous
 62
           7
100
AcDbCircle
 10
8.272977620498
 20
14.21515981532
 30
-0.000000130642
 40
0.047569444444
100
AcDbArc
 50
93.096315397928
 51
266.903684602072
1001
TCAD
1000
TCW_CUSTOM_DATA
1002
{
1000
#$AUX@_ToolInfo Properties
1070
           8
1000
Insert^JArc^JTriplePoint132@Arc TriplePoint132
1002
}
  0
ARC
  5
158
100
AcDbEntity
  8
Exterior View
370
           0
  6
Continuous
 62
           7
100
AcDbCircle
 10
8.272977620498
 20
13.47215981532
 30
-0.000000130642
 40
0.047569444444
100
AcDbArc
 50
93.096315397927
 51
266.903684602072
1001
TCAD
1000
TCW_CUSTOM_DATA
1002
{
1000
#$AUX@_ToolInfo Properties
1070
           8
1000
Insert^JArc^JTriplePoint132@Arc TriplePoint132
1002
}
  0
ARC
  5
159
100
AcDbEntity
  8
Exterior View
370
           0
  6
Continuous
 62
           7
100
AcDbCircle
 10
8.272977620498
 20
12.10815981532
 30
-0.000000130642
 40
0.047569444444
100
AcDbArc
 50
93.096315397924
 51
266.903684602076
1001
TCAD
1000
TCW_CUSTOM_DATA
1002
{
1000
#$AUX@_ToolInfo Properties
1070
           8
1000
Insert^JArc^JTriplePoint132@Arc TriplePoint132
1002
}
  0
ARC
  5
15A
100
AcDbEntity
  8
Exterior View
370
           0
  6
Continuous
 62
           7
100
AcDbCircle
 10
8.272977620498
 20
12.77015981532
 30
-0.000000130642
 40
0.047569444444
100
AcDbArc
 50
93.096315397992
 51
266.903684602008
1001
TCAD
1000
TCW_CUSTOM_DATA
1002
{
1000
#$AUX@_ToolInfo Properties
1070
           8
1000
Insert^JArc^JTriplePoint132@Arc TriplePoint132
1002
}
  0
ARC
  5
15B
100
AcDbEntity
  8
Exterior View
370
           0
  6
Continuous
 62
           7
100
AcDbCircle
 10
8.272977620498
 20
11.48315981532
 30
-0.000000130642
 40
0.047569444444
100
AcDbArc
 50
93.096315397924
 51
266.903684602076
1001
TCAD
1000
TCW_CUSTOM_DATA
1002
{
1000
#$AUX@_ToolInfo Properties
1070
           8
1000
Insert^JArc^JTriplePoint132@Arc TriplePoint132
1002
}
  0
ARC
  5
15C
100
AcDbEntity
  8
Exterior View
370
           0
  6
Continuous
 62
           7
100
AcDbCircle
 10
8.272977620498
 20
10.33615981532
 30
-0.000000130642
 40
0.047569444444
100
AcDbArc
 50
93.096315397924
 51
266.903684602076
1001
TCAD
1000
TCW_CUSTOM_DATA
1002
{
1000
#$AUX@_ToolInfo Properties
1070
           8
1000
Insert^JArc^JTriplePoint132@Arc TriplePoint132
1002
}
  0
ARC
  5
15D
100
AcDbEntity
  8
Exterior View
370
           0
  6
Continuous
 62
           7
100
AcDbCircle
 10
8.272977620498
 20
10.89315981532
 30
-0.000000130642
 40
0.047569444444
100
AcDbArc
 50
93.096315397928
 51
266.903684602072
1001
TCAD
1000
TCW_CUSTOM_DATA
1002
{
1000
#$AUX@_ToolInfo Properties
1070
           8
1000
Insert^JArc^JTriplePoint132@Arc TriplePoint132
1002
}
  0
ARC
  5
15E
100
AcDbEntity
  8
Exterior View
370
           0
  6
Continuous
 62
           7
100
AcDbCircle
 10
8.272977620499
 20
7.22215981532
 30
-0.000000130642
 40
0.047569444444
100
AcDbArc
 50
93.096315397924
 51
266.903684602076
1001
TCAD
1000
TCW_CUSTOM_DATA
1002
{
1000
#$AUX@_ToolInfo Properties
1070
           8
1000
Insert^JArc^JTriplePoint132@Arc TriplePoint132
1002
}
  0
ARC
  5
15F
100
AcDbEntity
  8
Exterior View
370
           0
  6
Continuous
 62
           7
100
AcDbCircle
 10
8.272977620499
 20
7.59415981532
 30
-0.000000130642
 40
0.047569444444
100
AcDbArc
 50
93.096315397924
 51
266.903684602076
1001
TCAD
1000
TCW_CUSTOM_DATA
1002
{
1000
#$AUX@_ToolInfo Properties
1070
           8
1000
Insert^JArc^JTriplePoint132@Arc TriplePoint132
1002
}
  0
ARC
  5
160
100
AcDbEntity
  8
Exterior View
370
           0
  6
Continuous
 62
           7
100
AcDbCircle
 10
8.272977620499
 20
7.98815981532
 30
-0.000000130642
 40
0.047569444444
100
AcDbArc
 50
93.096315397927
 51
266.903684602072
1001
TCAD
1000
TCW_CUSTOM_DATA
1002
{
1000
#$AUX@_ToolInfo Properties
1070
           8
1000
Insert^JArc^JTriplePoint132@Arc TriplePoint132
1002
}
  0
ARC
  5
161
100
AcDbEntity
  8
Exterior View
370
           0
  6
Continuous
 62
           7
100
AcDbCircle
 10
8.272977620499
 20
8.40515981532
 30
-0.000000130642
 40
0.047569444444
100
AcDbArc
 50
93.096315397924
 51
266.903684602076
1001
TCAD
1000
TCW_CUSTOM_DATA
1002
{
1000
#$AUX@_ToolInfo Properties
1070
           8
1000
Insert^JArc^JTriplePoint132@Arc TriplePoint132
1002
}
  0
ARC
  5
162
100
AcDbEntity
  8
Exterior View
370
           0
  6
Continuous
 62
           7
100
AcDbCircle
 10
8.273297074702
 20
8.84715981532
 30
-0.000000130642
 40
0.047569444444
100
AcDbArc
 50
93.096315397928
 51
266.903684602072
1001
TCAD
1000
TCW_CUSTOM_DATA
1002
{
1000
#$AUX@_ToolInfo Properties
1070
           8
1000
Insert^JArc^JTriplePoint132@Arc TriplePoint132
1002
}
  0
ARC
  5
163
100
AcDbEntity
  8
Exterior View
370
           0
  6
Continuous
 62
           7
100
AcDbCircle
 10
8.272977620499
 20
9.31515981532
 30
-0.000000130642
 40
0.047569444444
100
AcDbArc
 50
93.096315397924
 51
266.903684602076
1001
TCAD
1000
TCW_CUSTOM_DATA
1002
{
1000
#$AUX@_ToolInfo Properties
1070
           8
1000
Insert^JArc^JTriplePoint132@Arc TriplePoint132
1002
}
  0
ARC
  5
164
100
AcDbEntity
  8
Exterior View
370
           0
  6
Continuous
 62
           7
100
AcDbCircle
 10
8.272977620499
 20
9.81115981532
 30
-0.000000130642
 40
0.047569444444
100
AcDbArc
 50
93.096315397928
 51
266.903684602074
1001
TCAD
1000
TCW_CUSTOM_DATA
1002
{
1000
#$AUX@_ToolInfo Properties
1070
           8
1000
Insert^JArc^JTriplePoint132@Arc TriplePoint132
1002
}
  0
ARC
  5
165
100
AcDbEntity
  8
Exterior View
370
           0
  6
Continuous
 62
           7
100
AcDbCircle
 10
8.272977620499
 20
6.87115981532
 30
-0.000000130642
 40
0.047569444444
100
AcDbArc
 50
93.096315397924
 51
266.903684602076
1001
TCAD
1000
TCW_CUSTOM_DATA
1002
{
1000
#$AUX@_ToolInfo Properties
1070
           8
1000
Insert^JArc^JTriplePoint132@Arc TriplePoint132
1002
}
  0
ARC
  5
166
100
AcDbEntity
  8
Exterior View
370
           0
  6
Continuous
 62
           7
100
AcDbCircle
 10
8.272977620499
 20
6.54015981532
 30
-0.000000130642
 40
0.047569444444
100
AcDbArc
 50
93.096315397924
 51
266.903684602076
1001
TCAD
1000
TCW_CUSTOM_DATA
1002
{
1000
#$AUX@_ToolInfo Properties
1070
           8
1000
Insert^JArc^JTriplePoint132@Arc TriplePoint132
1002
}
  0
LINE
  5
167
100
AcDbEntity
  8
Exterior View
370
           0
  6
Continuous
 62
           7
100
AcDbLine
 10
8.480408176053
 20
6.33665981532
 30
0.0
 11
8.480408176053
 21
23.43065981532
 31
0.0
1001
TCAD
1000
TCW_CUSTOM_DATA
1002
{
1000
#$AUX@_ToolInfo Properties
1070
           8
1000
Insert^JLine^JPerpendicular@Line Perpendicular
1002
}
  0
LINE
  5
168
100
AcDbEntity
  8
Hidden
370
           0
  6
HIDDEN
 62
           7
 48
0.20000000298
100
AcDbLine
 10
9.278755111272
 20
5.300659815319
 30
0.0
 11
9.278755111272
 21
6.300659815319
 31
0.0
1001
TCAD
1000
TCW_CUSTOM_DATA
1002
{
1000
#$AUX@_ToolInfo Properties
1070
           8
1000
Insert^JLine^JPerpendicular@Line Perpendicular
1002
}
  0
LINE
  5
169
100
AcDbEntity
  8
Hidden
370
           0
  6
HIDDEN
 62
           7
 48
0.20000000298
100
AcDbLine
 10
9.278755111272
 20
1.858750000012
 30
0.0
 11
9.278755111272
 21
2.858750000012
 31
0.0
1001
TCAD
1000
TCW_CUSTOM_DATA
1002
{
1000
#$AUX@_ToolInfo Properties
1070
           8
1000
Insert^JLine^JPerpendicular@Line Perpendicular
1002
}
  0
LINE
  5
16A
100
AcDbEntity
  8
Exterior View
370
           0
  6
Continuous
 62
           7
100
AcDbLine
 10
1.6875
 20
23.25315981532
 30
0.0
 11
1.6875
 21
23.18079751804
 31
0.0
1001
TCAD
1000
TCW_CUSTOM_DATA
1002
{
1000
#$AUX@_ToolInfo Properties
1070
           8
1000
Insert^JLine^JSingle@Line Single
1002
}
  0
LINE
  5
16B
100
AcDbEntity
  8
Hidden
370
           0
  6
HIDDEN
 62
           7
 48
0.20000000298
100
AcDbLine
 10
9.836426608125
 20
8.592282489565
 30
0.0
 11
8.542908176053
 21
8.592282489565
 31
0.0
1001
TCAD
1000
TCW_CUSTOM_DATA
1002
{
1000
#$AUX@_ToolInfo Properties
1070
           8
1000
Insert^JLine^JPerpendicular@Line Perpendicular
1002
}
  0
LINE
  5
16C
100
AcDbEntity
  8
Hidden
370
           0
  6
HIDDEN
 62
           7
 48
0.20000000298
100
AcDbLine
 10
9.836426608054
 20
8.782282489565
 30
0.0
 11
8.542908176053
 21
8.782282489565
 31
0.0
1001
TCAD
1000
TCW_CUSTOM_DATA
1002
{
1000
#$AUX@_ToolInfo Properties
1070
           8
1000
Insert^JLine^JPerpendicular@Line Perpendicular
1002
}
  0
LINE
  5
16D
100
AcDbEntity
  8
Hidden
370
           0
  6
HIDDEN
 62
           7
 48
0.20000000298
100
AcDbLine
 10
9.83706605429
 20
8.782282489572
 30
0.0
 11
9.83706605429
 21
8.592282489565
 31
0.0
1001
TCAD
1000
TCW_CUSTOM_DATA
1002
{
1000
#$AUX@_ToolInfo Properties
1070
           8
1000
Insert^JLine^JSingle@Line Single
1002
}
  0
LINE
  5
16E
100
AcDbEntity
  8
Hidden
370
           0
  6
HIDDEN
 62
           7
 48
0.20000000298
100
AcDbLine
 10
9.837066054282
 20
8.757282489569
 30
0.0
 11
8.542908176053
 21
8.757282489569
 31
0.0
1001
TCAD
1000
TCW_CUSTOM_DATA
1002
{
1000
#$AUX@_ToolInfo Properties
1070
           8
1000
Insert^JLine^JPerpendicular@Line Perpendicular
1002
}
  0
LINE
  5
16F
100
AcDbEntity
  8
Hidden
370
           0
  6
HIDDEN
 62
           7
 48
0.20000000298
100
AcDbLine
 10
9.83706605429
 20
8.617282489569
 30
0.0
 11
8.542908176038
 21
8.61728248915
 31
0.0
1001
TCAD
1000
TCW_CUSTOM_DATA
1002
{
1000
#$AUX@_ToolInfo Properties
1070
           8
1000
Insert^JLine^JPerpendicular@Line Perpendicular
1002
}
  0
LINE
  5
170
100
AcDbEntity
  8
Hidden
370
           0
  6
HIDDEN
 62
           7
 48
0.20000000298
100
AcDbLine
 10
10.014733711217
 20
8.437282489589
 30
0.0
 11
9.836426608117
 21
8.592282489572
 31
0.0
1001
TCAD
1000
TCW_CUSTOM_DATA
1002
{
1000
#$AUX@_ToolInfo Properties
1070
           8
1000
Insert^JLine^JSingle@Line Single
1002
}
  0
LINE
  5
171
100
AcDbEntity
  8
Hidden
370
           0
  6
HIDDEN
 62
           7
 48
0.20000000298
100
AcDbLine
 10
9.968732532657
 20
8.897294275157
 30
0.0
 11
9.836426608062
 21
8.782282489572
 31
0.0
1001
TCAD
1000
TCW_CUSTOM_DATA
1002
{
1000
#$AUX@_ToolInfo Properties
1070
           8
1000
Insert^JLine^JSingle@Line Single
1002
}
  0
LINE
  5
172
100
AcDbEntity
  8
Hidden
370
           0
  6
HIDDEN
 62
           7
 48
0.20000000298
100
AcDbLine
 10
9.96354231706
 20
8.892782489572
 30
0.0
 11
9.96354231706
 21
8.48178248962
 31
0.0
1001
TCAD
1000
TCW_CUSTOM_DATA
1002
{
1000
#$AUX@_ToolInfo Properties
1070
           8
1000
Insert^JLine^JSingle@Line Single
1002
}
  0
LINE
  5
173
100
AcDbEntity
  8
Hidden
370
           0
  6
HIDDEN
 62
           7
 48
0.20000000298
100
AcDbLine
 10
9.98940156512
 20
7.062532919725
 30
0.0
 11
8.542908176113
 21
7.062532919725
 31
0.0
1001
TCAD
1000
TCW_CUSTOM_DATA
1002
{
1000
#$AUX@_ToolInfo Properties
1070
           8
1000
Insert^JLine^JPerpendicular@Line Perpendicular
1002
}
  0
LINE
  5
174
100
AcDbEntity
  8
Hidden
370
           0
  6
HIDDEN
 62
           7
 48
0.20000000298
100
AcDbLine
 10
9.989401565049
 20
7.252532919725
 30
0.0
 11
8.542908176053
 21
7.252532919725
 31
0.0
1001
TCAD
1000
TCW_CUSTOM_DATA
1002
{
1000
#$AUX@_ToolInfo Properties
1070
           8
1000
Insert^JLine^JPerpendicular@Line Perpendicular
1002
}
  0
LINE
  5
175
100
AcDbEntity
  8
Hidden
370
           0
  6
HIDDEN
 62
           7
 48
0.20000000298
100
AcDbLine
 10
9.990041011285
 20
7.252532919732
 30
0.0
 11
9.990041011285
 21
7.062532919725
 31
0.0
1001
TCAD
1000
TCW_CUSTOM_DATA
1002
{
1000
#$AUX@_ToolInfo Properties
1070
           8
1000
Insert^JLine^JSingle@Line Single
1002
}
  0
LINE
  5
176
100
AcDbEntity
  8
Hidden
370
           0
  6
HIDDEN
 62
           7
 48
0.20000000298
100
AcDbLine
 10
9.990041011277
 20
7.227532919729
 30
0.0
 11
8.542908176053
 21
7.227532919729
 31
0.0
1001
TCAD
1000
TCW_CUSTOM_DATA
1002
{
1000
#$AUX@_ToolInfo Properties
1070
           8
1000
Insert^JLine^JPerpendicular@Line Perpendicular
1002
}
  0
LINE
  5
177
100
AcDbEntity
  8
Hidden
370
           0
  6
HIDDEN
 62
           7
 48
0.20000000298
100
AcDbLine
 10
9.990041011285
 20
7.087532919729
 30
0.0
 11
8.542908176107
 21
7.087532919261
 31
0.0
1001
TCAD
1000
TCW_CUSTOM_DATA
1002
{
1000
#$AUX@_ToolInfo Properties
1070
           8
1000
Insert^JLine^JPerpendicular@Line Perpendicular
1002
}
  0
LINE
  5
178
100
AcDbEntity
  8
Hidden
370
           0
  6
HIDDEN
 62
           7
 48
0.20000000298
100
AcDbLine
 10
10.167708668211
 20
6.90753291975
 30
0.0
 11
9.989401565112
 21
7.062532919732
 31
0.0
1001
TCAD
1000
TCW_CUSTOM_DATA
1002
{
1000
#$AUX@_ToolInfo Properties
1070
           8
1000
Insert^JLine^JSingle@Line Single
1002
}
  0
LINE
  5
179
100
AcDbEntity
  8
Hidden
370
           0
  6
HIDDEN
 62
           7
 48
0.20000000298
100
AcDbLine
 10
10.121707489651
 20
7.367544705317
 30
0.0
 11
9.989401565057
 21
7.252532919732
 31
0.0
1001
TCAD
1000
TCW_CUSTOM_DATA
1002
{
1000
#$AUX@_ToolInfo Properties
1070
           8
1000
Insert^JLine^JSingle@Line Single
1002
}
  0
LINE
  5
17A
100
AcDbEntity
  8
Hidden
370
           0
  6
HIDDEN
 62
           7
 48
0.20000000298
100
AcDbLine
 10
10.116517274055
 20
7.363032919732
 30
0.0
 11
10.116517274055
 21
6.95203291978
 31
0.0
1001
TCAD
1000
TCW_CUSTOM_DATA
1002
{
1000
#$AUX@_ToolInfo Properties
1070
           8
1000
Insert^JLine^JSingle@Line Single
1002
}
  0
LINE
  5
17B
100
AcDbEntity
  8
Exterior View
370
           0
  6
Continuous
 62
           7
100
AcDbLine
 10
9.590386980703
 20
-3.742663472223
 30
0.0
 11
9.18292603367
 21
-3.742663472223
 31
0.0
1001
TCAD
1000
TCW_CUSTOM_DATA
1002
{
1000
#$AUX@_ToolInfo Properties
1070
           8
1000
Insert^JLine^JSingle@Line Single
1002
}
  0
LINE
  5
17C
100
AcDbEntity
  8
Exterior View
370
           0
  6
Continuous
 62
           7
100
AcDbLine
 10
9.530406507187
 20
-3.430163472223
 30
0.0
 11
9.242906507187
 21
-3.430163472223
 31
0.0
1001
TCAD
1000
TCW_CUSTOM_DATA
1002
{
1000
#$AUX@_ToolInfo Properties
1070
           8
1000
Insert^JLine^JSingle@Line Single
1002
}
  0
LINE
  5
17D
100
AcDbEntity
  8
Exterior View
370
           0
  6
Continuous
 62
           7
100
AcDbLine
 10
9.530406507187
 20
-3.407187328197
 30
0.0
 11
9.530406507187
 21
-3.547350972223
 31
0.0
1001
TCAD
1000
TCW_CUSTOM_DATA
1002
{
1000
#$AUX@_ToolInfo Properties
1070
           8
1000
Insert^JLine^JPerpendicular@Line Perpendicular
1002
}
  0
LINE
  5
17E
100
AcDbEntity
  8
Exterior View
370
           0
  6
Continuous
 62
           7
100
AcDbLine
 10
9.242906507187
 20
-3.407187328197
 30
0.0
 11
9.242906507187
 21
-3.547350972223
 31
0.0
1001
TCAD
1000
TCW_CUSTOM_DATA
1002
{
1000
#$AUX@_ToolInfo Properties
1070
           8
1000
Insert^JLine^JPerpendicular@Line Perpendicular
1002
}
  0
LINE
  5
17F
100
AcDbEntity
  8
Exterior View
370
           0
  6
Continuous
 62
           7
100
AcDbLine
 10
9.626517410331
 20
-3.667489601153
 30
0.0
 11
9.530406507187
 21
-3.547350972223
 31
0.0
1001
TCAD
1000
TCW_CUSTOM_DATA
1002
{
1000
#$AUX@_ToolInfo Properties
1070
           8
1000
Insert^JLine^JSingle@Line Single
1002
}
  0
LINE
  5
180
100
AcDbEntity
  8
Exterior View
370
           0
  6
Continuous
 62
           7
100
AcDbLine
 10
9.146795607652
 20
-3.667489596641
 30
0.0
 11
9.242906507187
 21
-3.547350972223
 31
0.0
1001
TCAD
1000
TCW_CUSTOM_DATA
1002
{
1000
#$AUX@_ToolInfo Properties
1070
           8
1000
Insert^JLine^JSingle@Line Single
1002
}
  0
ARC
  5
181
100
AcDbEntity
  8
Exterior View
370
           0
  6
Continuous
 62
           7
100
AcDbCircle
 10
9.590386980703
 20
-3.696393945739
 30
0.0
 40
0.046269526484
100
AcDbArc
 50
-90.0
 51
38.659807400311
1001
TCAD
1000
TCW_CUSTOM_DATA
1002
{
1000
#$AUX@_ToolInfo Properties
1070
           8
1000
Insert^JArc^JTanToEntities@Arc TanToEntities
1002
}
  0
ARC
  5
182
100
AcDbEntity
  8
Exterior View
370
           0
  6
Continuous
 62
           7
100
AcDbCircle
 10
9.18292603367
 20
-3.696393945739
 30
0.0
 40
0.046269526484
100
AcDbArc
 50
141.340184205575
 51
270.0
1001
TCAD
1000
TCW_CUSTOM_DATA
1002
{
1000
#$AUX@_ToolInfo Properties
1070
           8
1000
Insert^JArc^JTanToEntities@Arc TanToEntities
1002
}
  0
LINE
  5
183
100
AcDbEntity
  8
Exterior View
370
           0
  6
Continuous
 62
           7
100
AcDbLine
 10
8.480408176053
 20
23.43065981532
 30
0.0
 11
8.246408168931
 21
23.43065981532
 31
0.0
1001
TCAD
1000
TCW_CUSTOM_DATA
1002
{
1000
#$AUX@_ToolInfo Properties
1070
           8
1000
Insert^JLine^JPerpendicular@Line Perpendicular
1002
}
  0
LINE
  5
184
100
AcDbEntity
  8
Exterior View
370
           0
  6
Continuous
 62
           7
100
AcDbLine
 10
-0.625000000001
 20
23.430668802084
 30
0.0
 11
0.624999999999
 21
23.430668802084
 31
0.0
1001
TCAD
1000
TCW_CUSTOM_DATA
1002
{
1000
#$AUX@_ToolInfo Properties
1070
           8
1000
Insert^JLine^JSingle@Line Single
1002
}
  0
LINE
  5
185
100
AcDbEntity
  8
Exterior View
370
           0
  6
Continuous
 62
           7
100
AcDbLine
 10
9.060408176053
 20
22.640811800231
 30
0.0
 11
9.060408176053
 21
10.06603476868
 31
0.0
1001
TCAD
1000
TCW_CUSTOM_DATA
1002
{
1000
#$AUX@_ToolInfo Properties
1070
           8
1000
Insert^JLine^JPerpendicular@Line Perpendicular
1002
}
  0
LINE
  5
186
100
AcDbEntity
  8
Exterior View
370
           0
  6
Continuous
 62
           7
 48
0.20000000298
100
AcDbLine
 10
81.931576944444
 20
16.944651018826
 30
0.0
 11
81.931576944444
 21
3.944651018826
 31
0.0
1001
TCAD
1000
TCW_CUSTOM_DATA
1002
{
1000
#$AUX@_ToolInfo Properties
1070
           8
1000
Insert^JLine^JSingle@Line Single
1002
}
  0
LINE
  5
187
100
AcDbEntity
  8
Exterior View
370
           0
  6
Continuous
 62
           7
 48
0.20000000298
100
AcDbLine
 10
81.931576944444
 20
3.944651018826
 30
0.0
 11
89.806576944444
 21
3.944651018826
 31
0.0
1001
TCAD
1000
TCW_CUSTOM_DATA
1002
{
1000
#$AUX@_ToolInfo Properties
1070
           8
1000
Insert^JLine^JPerpendicular@Line Perpendicular
1002
}
  0
LINE
  5
188
100
AcDbEntity
  8
Exterior View
370
           0
  6
Continuous
 62
           7
 48
0.20000000298
100
AcDbLine
 10
89.806576944444
 20
3.944651018826
 30
0.0
 11
89.806576944444
 21
16.944651018826
 31
0.0
1001
TCAD
1000
TCW_CUSTOM_DATA
1002
{
1000
#$AUX@_ToolInfo Properties
1070
           8
1000
Insert^JLine^JPerpendicular@Line Perpendicular
1002
}
  0
LINE
  5
189
100
AcDbEntity
  8
Exterior View
370
           0
  6
Continuous
 62
           7
 48
0.20000000298
100
AcDbLine
 10
81.931576944444
 20
16.944651018826
 30
0.0
 11
89.806576944444
 21
16.944651018826
 31
0.0
1001
TCAD
1000
TCW_CUSTOM_DATA
1002
{
1000
#$AUX@_ToolInfo Properties
1070
           8
1000
Insert^JLine^JPerpendicular@Line Perpendicular
1002
}
  0
LINE
  5
18A
100
AcDbEntity
  8
Exterior View
370
           0
  6
Continuous
 62
           7
 48
0.20000000298
100
AcDbLine
 10
93.681576944444
 20
3.757151018826
 30
0.0
 11
93.681576944444
 21
17.757151018826
 31
0.0
1001
TCAD
1000
TCW_CUSTOM_DATA
1002
{
1000
#$AUX@_ToolInfo Properties
1070
           8
1000
Insert^JLine^JSingle@Line Single
1002
}
  0
LINE
  5
18B
100
AcDbEntity
  8
Exterior View
370
           0
  6
Continuous
 62
           7
 48
0.20000000298
100
AcDbLine
 10
93.681576944444
 20
3.757151018826
 30
0.0
 11
106.681576944444
 21
3.757151018826
 31
0.0
1001
TCAD
1000
TCW_CUSTOM_DATA
1002
{
1000
#$AUX@_ToolInfo Properties
1070
           8
1000
Insert^JLine^JPerpendicular@Line Perpendicular
1002
}
  0
LINE
  5
18C
100
AcDbEntity
  8
Exterior View
370
           0
  6
Continuous
 62
           7
 48
0.20000000298
100
AcDbLine
 10
106.681576944444
 20
3.757151018826
 30
0.0
 11
106.681576944444
 21
17.757151018826
 31
0.0
1001
TCAD
1000
TCW_CUSTOM_DATA
1002
{
1000
#$AUX@_ToolInfo Properties
1070
           8
1000
Insert^JLine^JPerpendicular@Line Perpendicular
1002
}
  0
LINE
  5
18D
100
AcDbEntity
  8
Exterior View
370
           0
  6
Continuous
 62
           7
 48
0.20000000298
100
AcDbLine
 10
93.681576944444
 20
17.757151018826
 30
0.0
 11
106.681576944444
 21
17.757151018826
 31
0.0
1001
TCAD
1000
TCW_CUSTOM_DATA
1002
{
1000
#$AUX@_ToolInfo Properties
1070
           8
1000
Insert^JLine^JPerpendicular@Line Perpendicular
1002
}
  0
LINE
  5
18E
100
AcDbEntity
  8
Exterior View
370
           0
  6
Continuous
 62
           7
100
AcDbLine
 10
8.542908176053
 20
6.64915981532
 30
-0.000000130625
 11
8.480408176053
 21
6.64915981532
 31
0.0
1001
TCAD
1000
TCW_CUSTOM_DATA
1002
{
1000
#$AUX@_ToolInfo Properties
1070
           8
1000
Insert^JLine^JPerpendicular@Line Perpendicular
1002
}
  0
ELLIPSE
  5
18F
100
AcDbEntity
  8
Exterior View
370
           0
  6
Continuous
 62
           7
 48
0.20000000298
100
AcDbEllipse
 10
100.181896405942
 20
19.767585391796
 30
0.0
 11
0.0000000000000011
 21
-18.086916760478076
 31
0.0
210
0.0
220
0.0
230
1.0
 40
0.882233592144
 41
0.0
 42
0.19246719790903
  0
ELLIPSE
  5
190
100
AcDbEntity
  8
Exterior View
370
           0
  6
Continuous
 62
           7
 48
0.20000000298
100
AcDbEllipse
 10
102.65527107088
 20
5.381576245971
 30
0.0
 11
0.0000000000000002
 21
-3.4302773166423961
 31
0.0
210
0.0
220
0.0
230
1.0
 40
0.882233592144
 41
0.1924671151278858
 42
1.5707963267948966
  0
ELLIPSE
  5
191
100
AcDbEntity
  8
Exterior View
370
           0
  6
Continuous
 62
           7
 48
0.20000000298
100
AcDbEllipse
 10
99.919912701596
 20
13.309596444529
 30
0.0
 11
4.7772811043073302
 21
0.0
 31
0.0
210
0.0
220
0.0
230
1.0
 40
0.880391474347
 41
-0.4404630277005606
 42
0.0
  0
ELLIPSE
  5
192
100
AcDbEntity
  8
Exterior View
370
           0
  6
Continuous
 62
           7
 48
0.20000000298
100
AcDbEllipse
 10
107.987096008485
 20
10.26021856159
 30
0.0
 11
4.0555190584503773
 21
0.0
 31
0.0
210
0.0
220
0.0
230
1.0
 40
0.808217900441
 41
2.7482895440411803
 42
3.1415926535897238
  0
ELLIPSE
  5
193
100
AcDbEntity
  8
Exterior View
370
           0
  6
Continuous
 62
           7
 48
0.20000000298
100
AcDbEllipse
 10
107.336534818313
 20
10.260218561683
 30
0.0
 11
3.404957868316842
 21
0.0
 31
0.0
210
0.0
220
0.0
230
1.0
 40
0.961410681296
 41
3.1415926535897931
 42
3.7185394285396689
  0
ELLIPSE
  5
194
100
AcDbEntity
  8
Exterior View
370
           0
  6
Continuous
 62
           7
 48
0.20000000298
100
AcDbEllipse
 10
90.233059811587
 20
10.937281749014
 30
0.0
 11
6.1985171383663982
 21
0.0
 31
0.0
210
0.0
220
0.0
230
1.0
 40
0.808382871566
 41
0.0
 42
0.2713086312206302
  0
ARC
  5
195
100
AcDbEntity
  8
Exterior View
370
           0
  6
Continuous
 62
           7
 48
0.20000000298
100
AcDbCircle
 10
96.797578187363
 20
17.323890865909
 30
0.0
 40
0.241507221075
100
AcDbArc
 50
-16.444149882684
 51
119.298600075698
  0
ELLIPSE
  5
196
100
AcDbEntity
  8
Exterior View
370
           0
  6
Continuous
 62
           7
 48
0.20000000298
100
AcDbEllipse
 10
103.029484107345
 20
13.308300019157
 30
0.0
 11
0.0000000000000001
 21
-1.8375884376428278
 31
0.0
210
0.0
220
0.0
230
1.0
 40
0.907553660784
 41
1.5715018305153285
 42
2.3272263511173676
  0
ARC
  5
197
100
AcDbEntity
  8
Exterior View
370
           0
  6
Continuous
 62
           7
 48
0.20000000298
100
AcDbCircle
 10
104.066864366466
 20
14.403614679509
 30
0.0
 40
0.241507221074
100
AcDbArc
 50
43.380326715598
 51
186.349186863839
  0
ELLIPSE
  5
198
100
AcDbEntity
  8
Exterior View
370
           0
  6
Continuous
 62
           7
 48
0.20000000298
100
AcDbEllipse
 10
100.181896803814
 20
19.767585391796
 30
0.0
 11
0.0000000000000011
 21
-18.086916760478061
 31
0.0
210
0.0
220
0.0
230
1.0
 40
0.882336079398
 41
-0.1924672310555253
 42
0.0
  0
ELLIPSE
  5
199
100
AcDbEntity
  8
Exterior View
370
           0
  6
Continuous
 62
           7
 48
0.20000000298
100
AcDbEllipse
 10
108.315856212772
 20
4.026902960705
 30
0.0
 11
13.761243216254753
 21
0.0
 31
0.0
210
0.0
220
0.0
230
1.0
 40
0.827620341305
 41
2.6990790559152367
 42
2.9868927181465668
  0
ELLIPSE
  5
19A
100
AcDbEntity
  8
Exterior View
370
           0
  6
Continuous
 62
           7
 48
0.20000000298
100
AcDbEllipse
 10
97.708234388845
 20
5.381576324531
 30
0.0
 11
0.0000000000000002
 21
-3.4302773166424161
 31
0.0
210
0.0
220
0.0
230
1.0
 40
0.882336079398
 41
4.7123889523626357
 42
6.0907181589051884
  0
ELLIPSE
  5
19B
100
AcDbEntity
  8
Exterior View
370
           0
  6
Continuous
 62
           7
 48
0.20000000298
100
AcDbEllipse
 10
93.024752963829
 20
10.937281868362
 30
0.0
 11
0.0000000000000002
 21
-3.7278713409129978
 31
0.0
210
0.0
220
0.0
230
1.0
 40
0.913879175157
 41
0.9938495206784028
 42
1.5707963267948966
  0
ELLIPSE
  5
19C
100
AcDbEntity
  8
Exterior View
370
           0
  6
Continuous
 62
           7
 48
0.20000000298
100
AcDbEllipse
 10
98.53164797917
 20
15.979770025974
 30
0.0
 11
0.0000000000000001
 21
-2.0558093533980188
 31
0.0
210
0.0
220
0.0
230
1.0
 40
0.787275168877
 41
-1.5182817389676071
 42
-0.0276713843287146
  0
ELLIPSE
  5
19D
100
AcDbEntity
  8
Exterior View
370
           0
  6
Continuous
 62
           7
 48
0.20000000298
100
AcDbEllipse
 10
99.913796258296
 20
16.09086253761
 30
0.0
 11
0.0000000000000003
 21
-4.1722541028530582
 31
0.0
210
0.0
220
0.0
230
1.0
 40
0.719994804015
 41
4.4294857670567422
 42
4.764903415488849
  0
ELLIPSE
  5
19E
100
AcDbEntity
  8
Exterior View
370
           0
  6
Continuous
 62
           7
 48
0.20000000298
100
AcDbEllipse
 10
102.056576950032
 20
13.796286141737
 30
0.0
 11
0.0000000000000001
 21
-1.7527940390941126
 31
0.0
210
0.0
220
0.0
230
1.0
 40
0.801842865077
 41
0.0
 42
0.4278953830802643
  0
ELLIPSE
  5
19F
100
AcDbEntity
  8
Exterior View
370
           0
  6
Continuous
 62
           7
 48
0.20000000298
100
AcDbEllipse
 10
101.534983730148
 20
14.143516045815
 30
0.0
 11
2.3025498328388156
 21
0.0
 31
0.0
210
0.0
220
0.0
230
1.0
 40
0.961294668452
 41
-1.0703511114834541
 42
0.1056395368018372
1001
TCAD
1000
TCW_CUSTOM_DATA
1002
{
1000
#$AUX@_ToolInfo Properties
1070
           8
1000
Insert^JArc^JTriplePoint132@Arc TriplePoint132
1002
}
  0
ELLIPSE
  5
1A0
100
AcDbEntity
  8
Exterior View
370
           0
  6
Continuous
 62
           7
 48
0.20000000298
100
AcDbEllipse
 10
92.040769515545
 20
4.268179415267
 30
0.0
 11
13.768133082685896
 21
0.0
 31
0.0
210
0.0
220
0.0
230
1.0
 40
0.713473958579
 41
0.1546999494419168
 42
0.442513610963967
  0
ARC
  5
1A1
100
AcDbEntity
  8
Exterior View
370
           0
  6
Continuous
 62
           7
 48
0.20000000298
100
AcDbCircle
 10
99.218991452601
 20
15.223930313664
 30
0.0
 40
3.58489556437
100
AcDbArc
 50
151.855123215009
 51
187.214271746965
  0
ELLIPSE
  5
1A2
100
AcDbEntity
  8
Exterior View
370
           0
  6
Continuous
 62
           7
 48
0.20000000298
100
AcDbEllipse
 10
107.946621340186
 20
16.36126938718
 30
0.0
 11
0.0000000000000008
 21
-12.892321444143681
 31
0.0
210
0.0
220
0.0
230
1.0
 40
0.960133507021
 41
-1.4473452406050198
 42
-1.2487000784933842
  0
ARC
  5
1A3
100
AcDbEntity
  8
Exterior View
370
           0
  6
Continuous
 62
           7
 48
0.20000000298
100
AcDbCircle
 10
97.476991123579
 20
16.113121936161
 30
0.0
 40
1.629874369614
100
AcDbArc
 50
119.298599832239
 51
150.53131288321
  0
ELLIPSE
  5
1A4
100
AcDbEntity
  8
Exterior View
370
           0
  6
Continuous
 62
           7
 48
0.20000000298
100
AcDbEllipse
 10
102.166964331074
 20
13.042410707779
 30
0.0
 11
1.2770393985141537
 21
0.0
 31
0.0
210
0.0
220
0.0
230
1.0
 40
0.78515318625
 41
-2.5626176048837626
 42
-1.6573444101558401
  0
LINE
  5
1A5
100
AcDbEntity
  8
Exterior View
370
           0
  6
Continuous
 62
           7
 48
0.20000000298
100
AcDbLine
 10
100.181576950031
 20
3.757151018826
 30
0.0
 11
100.181576950031
 21
17.757151018826
 31
0.0
1001
TCAD
1000
TCW_CUSTOM_DATA
1002
{
1000
#$AUX@_ToolInfo Properties
1070
           8
1000
Insert^JLine^JSingle@Line Single
1002
}
  0
ELLIPSE
  5
1A6
100
AcDbEntity
  8
Exterior View
370
           0
  6
Continuous
 62
           7
100
AcDbEllipse
 10
54.261412281451
 20
15.040562588456
 30
0.0
 11
0.0000000000000011
 21
-18.086916760478076
 31
0.0
210
0.0
220
0.0
230
1.0
 40
0.882233592144
 41
0.0
 42
0.1924671979090302
  0
ELLIPSE
  5
1A7
100
AcDbEntity
  8
Exterior View
370
           0
  6
Continuous
 62
           7
100
AcDbEllipse
 10
56.734786946389
 20
0.65455344263
 30
0.0
 11
0.0000000000000002
 21
-3.4302773166423925
 31
0.0
210
0.0
220
0.0
230
1.0
 40
0.882233592144
 41
0.1924671151278947
 42
1.5707963267948966
  0
ELLIPSE
  5
1A8
100
AcDbEntity
  8
Exterior View
370
           0
  6
Continuous
 62
           7
100
AcDbEllipse
 10
53.999428577105
 20
8.582573641189
 30
0.0
 11
4.777281104307372
 21
0.0
 31
0.0
210
0.0
220
0.0
230
1.0
 40
0.880391474347
 41
-0.4404630277005603
 42
0.0
  0
ELLIPSE
  5
1A9
100
AcDbEntity
  8
Exterior View
370
           0
  6
Continuous
 62
           7
100
AcDbEllipse
 10
62.066611883995
 20
5.533195758249
 30
0.0
 11
4.055519058450372
 21
0.0
 31
0.0
210
0.0
220
0.0
230
1.0
 40
0.808217900441
 41
2.7482895440411803
 42
3.1415926535897238
  0
ELLIPSE
  5
1AA
100
AcDbEntity
  8
Exterior View
370
           0
  6
Continuous
 62
           7
100
AcDbEllipse
 10
61.416050693823
 20
5.533195758343
 30
0.0
 11
3.404957868316842
 21
0.0
 31
0.0
210
0.0
220
0.0
230
1.0
 40
0.961410681296
 41
3.1415926535897931
 42
3.718539428539672
  0
ELLIPSE
  5
1AB
100
AcDbEntity
  8
Exterior View
370
           0
  6
Continuous
 62
           7
100
AcDbEllipse
 10
44.312575687097
 20
6.210258945674
 30
0.0
 11
6.198517138366455
 21
0.0
 31
0.0
210
0.0
220
0.0
230
1.0
 40
0.808382871566
 41
0.0
 42
0.2713086312206314
  0
ARC
  5
1AC
100
AcDbEntity
  8
Exterior View
370
           0
  6
Continuous
 62
           7
100
AcDbCircle
 10
50.877094062872
 20
12.596868062569
 30
0.0
 40
0.241507221075
100
AcDbArc
 50
-16.444149882684
 51
119.298600075702
  0
ELLIPSE
  5
1AD
100
AcDbEntity
  8
Exterior View
370
           0
  6
Continuous
 62
           7
100
AcDbEllipse
 10
57.108999982854
 20
8.581277215816
 30
0.000000182877
 11
0.0
 21
-1.837588437642828
 31
0.0
210
0.0
220
0.0
230
1.0
 40
0.907553660784
 41
1.5715018305153285
 42
2.3272263511173628
  0
ARC
  5
1AE
100
AcDbEntity
  8
Exterior View
370
           0
  6
Continuous
 62
           7
100
AcDbCircle
 10
58.146380241976
 20
9.676591876169
 30
0.0
 40
0.241507221074
100
AcDbArc
 50
43.380326715595
 51
186.349186863838
  0
ELLIPSE
  5
1AF
100
AcDbEntity
  8
Exterior View
370
           0
  6
Continuous
 62
           7
100
AcDbEllipse
 10
54.261412679324
 20
15.040562588456
 30
0.0
 11
0.0000000000000011
 21
-18.086916760478061
 31
0.0
210
0.0
220
0.0
230
1.0
 40
0.882336079398
 41
-0.1924672310555267
 42
0.0
  0
ELLIPSE
  5
1B0
100
AcDbEntity
  8
Exterior View
370
           0
  6
Continuous
 62
           7
100
AcDbEllipse
 10
62.395372088281
 20
-0.700119842635
 30
0.0
 11
13.761243216254766
 21
0.0
 31
0.0
210
0.0
220
0.0
230
1.0
 40
0.827620341305
 41
2.6990790559152362
 42
2.9868927181465668
  0
ELLIPSE
  5
1B1
100
AcDbEntity
  8
Exterior View
370
           0
  6
Continuous
 62
           7
100
AcDbEllipse
 10
51.787750264354
 20
0.654553521191
 30
0.0
 11
0.0000000000000002
 21
-3.4302773166424125
 31
0.0
210
0.0
220
0.0
230
1.0
 40
0.882336079398
 41
4.7123889523626357
 42
6.0907181589051937
  0
ELLIPSE
  5
1B2
100
AcDbEntity
  8
Exterior View
370
           0
  6
Continuous
 62
           7
100
AcDbEllipse
 10
47.104268839338
 20
6.210259065022
 30
0.0
 11
0.0000000000000002
 21
-3.7278713409129978
 31
0.0
210
0.0
220
0.0
230
1.0
 40
0.913879175157
 41
0.9938495206784047
 42
1.5707963267948966
  0
ELLIPSE
  5
1B3
100
AcDbEntity
  8
Exterior View
370
           0
  6
Continuous
 62
           7
100
AcDbEllipse
 10
52.611163854679
 20
11.252747222634
 30
0.000000182877
 11
0.0
 21
-2.0558093533980184
 31
0.0
210
0.0
220
0.0
230
1.0
 40
0.787275168877
 41
-1.5182817389676071
 42
-0.0276713843287237
  0
ELLIPSE
  5
1B4
100
AcDbEntity
  8
Exterior View
370
           0
  6
Continuous
 62
           7
100
AcDbEllipse
 10
53.993312133805
 20
11.36383973427
 30
0.0
 11
0.0000000000000003
 21
-4.17225410285306
 31
0.0
210
0.0
220
0.0
230
1.0
 40
0.719994804015
 41
4.4294857670567431
 42
4.764903415488849
  0
ELLIPSE
  5
1B5
100
AcDbEntity
  8
Exterior View
370
           0
  6
Continuous
 62
           7
100
AcDbEllipse
 10
56.136092825541
 20
9.069263338397
 30
0.000000182877
 11
0.0
 21
-1.7527940390941126
 31
0.0
210
0.0
220
0.0
230
1.0
 40
0.801842865077
 41
0.0
 42
0.4278953830802628
  0
ELLIPSE
  5
1B6
100
AcDbEntity
  8
Exterior View
370
           0
  6
Continuous
 62
           7
100
AcDbEllipse
 10
55.614499605657
 20
9.416493242475
 30
0.0
 11
2.3025498328387717
 21
0.0
 31
0.0
210
0.0
220
0.0
230
1.0
 40
0.961294668452
 41
-1.0703511114834514
 42
0.1056395368018365
1001
TCAD
1000
TCW_CUSTOM_DATA
1002
{
1000
#$AUX@_ToolInfo Properties
1070
           8
1000
Insert^JArc^JTriplePoint132@Arc TriplePoint132
1002
}
  0
LINE
  5
1B7
100
AcDbEntity
  8
Exterior View
370
           0
  6
Continuous
 62
           7
100
AcDbLine
 10
53.215584376514
 20
-3.00747427257
 30
0.000000182877
 11
49.081983238897
 21
2.181793014691
 31
0.000000182877
1001
TCAD
1000
TCW_CUSTOM_DATA
1002
{
1000
#$AUX@_ToolInfo Properties
1070
           8
1000
Insert^JLine^JSingle@Line Single
1002
}
  0
LINE
  5
1B8
100
AcDbEntity
  8
Hidden
370
           0
  6
HIDDEN
 62
           7
 48
0.20000000298
100
AcDbLine
 10
56.88984540525
 20
1.096953619931
 30
0.0
 11
56.889821616841
 21
0.596953620497
 31
0.0
1001
TCAD
1000
TCW_CUSTOM_DATA
1002
{
1000
#$AUX@_ToolInfo Properties
1070
           8
1000
Insert^JLine^JPerpendicular@Line Perpendicular
1002
}
  0
LINE
  5
1B9
100
AcDbEntity
  8
Hidden
370
           0
  6
HIDDEN
 62
           7
 48
0.20000000298
100
AcDbLine
 10
57.514821616133
 20
0.596923884985
 30
0.0
 11
57.514845404542
 21
1.096923884419
 31
0.0
1001
TCAD
1000
TCW_CUSTOM_DATA
1002
{
1000
#$AUX@_ToolInfo Properties
1070
           8
1000
Insert^JLine^JPerpendicular@Line Perpendicular
1002
}
  0
LINE
  5
1BA
100
AcDbEntity
  8
Hidden
370
           0
  6
HIDDEN
 62
           7
 48
0.20000000298
100
AcDbLine
 10
56.889821616841
 20
0.596953620497
 30
0.0
 11
57.514821616133
 21
0.596923884985
 31
0.0
1001
TCAD
1000
TCW_CUSTOM_DATA
1002
{
1000
#$AUX@_ToolInfo Properties
1070
           8
1000
Insert^JLine^JSingle@Line Single
1002
}
  0
LINE
  5
1BB
100
AcDbEntity
  8
Hidden
370
           0
  6
HIDDEN
 62
           7
 48
0.20000000298
100
AcDbLine
 10
56.88984540525
 20
1.096953619931
 30
0.0
 11
57.514845404542
 21
1.096923884419
 31
0.0
1001
TCAD
1000
TCW_CUSTOM_DATA
1002
{
1000
#$AUX@_ToolInfo Properties
1070
           8
1000
Insert^JLine^JSingle@Line Single
1002
}
  0
ARC
  5
1BC
100
AcDbEntity
  8
Exterior View
370
           0
  6
Continuous
 62
           7
100
AcDbCircle
 10
50.927622461377
 20
0.654060669701
 30
0.0
 40
2.166529691915
100
AcDbArc
 50
169.308499120574
 51
180.045848797911
1001
TCAD
1000
TCW_CUSTOM_DATA
1002
{
1000
#$AUX@_ToolInfo Properties
1070
           8
1000
Insert^JArc^JTanToEntities@Arc TanToEntities
1002
}
  0
ELLIPSE
  5
1BD
100
AcDbEntity
  8
Exterior View
370
           0
  6
Continuous
 62
           7
100
AcDbEllipse
 10
46.120285391054
 20
-0.458843388073
 30
0.0
 11
13.768133082685859
 21
0.0
 31
0.0
210
0.0
220
0.0
230
1.0
 40
0.713473958579
 41
0.1546999494419163
 42
0.4425136109639662
  0
ELLIPSE
  5
1BE
100
AcDbEntity
  8
Exterior View
370
           0
  6
Continuous
 62
           7
100
AcDbEllipse
 10
57.610758945283
 20
0.654060708613
 30
0.0
 11
0.0000000000000001
 21
-2.1665296919150285
 31
0.0
210
0.0
220
0.0
230
1.0
 40
0.992524563628
 41
1.5699961259861799
 42
1.7573982307936575
1001
TCAD
1000
TCW_CUSTOM_DATA
1002
{
1000
#$AUX@_ToolInfo Properties
1070
           8
1000
Insert^JArc^JTanToEntities@Arc TanToEntities
1002
}
  0
ARC
  5
1BF
100
AcDbEntity
  8
Exterior View
370
           0
  6
Continuous
 62
           7
100
AcDbCircle
 10
53.29850732811
 20
10.496907510323
 30
0.0
 40
3.584895564371
100
AcDbArc
 50
151.855123215009
 51
187.214271746965
  0
ELLIPSE
  5
1C0
100
AcDbEntity
  8
Exterior View
370
           0
  6
Continuous
 62
           7
100
AcDbEllipse
 10
62.026137215695
 20
11.63424658384
 30
0.0
 11
0.0000000000000008
 21
-12.892321444143684
 31
0.0
210
0.0
220
0.0
230
1.0
 40
0.960133507021
 41
-1.4473452406050193
 42
-1.2487000784933837
  0
ARC
  5
1C1
100
AcDbEntity
  8
Exterior View
370
           0
  6
Continuous
 62
           7
100
AcDbCircle
 10
51.556506999088
 20
11.38609913282
 30
0.0
 40
1.629874369614
100
AcDbArc
 50
119.298599832239
 51
150.53131288321
  0
ELLIPSE
  5
1C2
100
AcDbEntity
  8
Exterior View
370
           0
  6
Continuous
 62
           7
100
AcDbEllipse
 10
56.246480206583
 20
8.315387904439
 30
0.000000182877
 11
1.2770393985141411
 21
0.0
 31
0.0
210
0.0
220
0.0
230
1.0
 40
0.78515318625
 41
-2.5626176048837674
 42
-1.6573444101558406
  0
CIRCLE
  5
1C3
100
AcDbEntity
  8
Hidden
370
           0
 62
           7
 48
0.20000000298
100
AcDbCircle
 10
58.533452105571
 20
0.310746260672
 30
0.0
 40
0.468656255055
1001
TCAD
1000
TCW_CUSTOM_DATA
1002
{
1000
#$AUX@_ToolInfo Properties
1070
           8
1000
Insert^JCircle^JCenterAndPoint@Circle CenterAndPoint
1002
}
  0
LINE
  5
1C4
100
AcDbEntity
  8
Hidden
370
           0
 62
           7
 48
0.20000000298
100
AcDbLine
 10
58.908353080132
 20
1.091851552794
 30
0.0
 11
58.908368458888
 21
0.591951547638
 31
0.0
1001
TCAD
1000
TCW_CUSTOM_DATA
1002
{
1000
#$AUX@_ToolInfo Properties
1070
           8
1000
Insert^JLine^JPerpendicular@Line Perpendicular
1002
}
  0
LINE
  5
1C5
100
AcDbEntity
  8
Hidden
370
           0
 62
           7
 48
0.20000000298
100
AcDbLine
 10
58.158503072399
 20
1.091828484661
 30
0.0
 11
58.158518451154
 21
0.591928479505
 31
0.0
1001
TCAD
1000
TCW_CUSTOM_DATA
1002
{
1000
#$AUX@_ToolInfo Properties
1070
           8
1000
Insert^JLine^JPerpendicular@Line Perpendicular
1002
}
  0
LINE
  5
1C6
100
AcDbEntity
  8
Hidden
370
           0
 62
           7
 48
0.20000000298
100
AcDbLine
 10
58.908353080132
 20
1.091851552794
 30
0.0
 11
58.158503072399
 21
1.091828484661
 31
0.0
1001
TCAD
1000
TCW_CUSTOM_DATA
1002
{
1000
#$AUX@_ToolInfo Properties
1070
           8
1000
Insert^JLine^JPerpendicular@Line Perpendicular
1002
}
  0
CIRCLE
  5
1C7
100
AcDbEntity
  8
Exterior View
370
           0
  6
Continuous
 62
           7
100
AcDbCircle
 10
56.866774784908
 20
-1.613035129179
 30
0.000000182877
 40
0.125
1001
TCAD
1000
TCW_CUSTOM_DATA
1002
{
1000
#$AUX@_ToolInfo Properties
1070
           8
1000
Insert^JCircle^JCenterAndPoint@Circle CenterAndPoint
1002
}
  0
CIRCLE
  5
1C8
100
AcDbEntity
  8
Exterior View
370
           0
  6
Continuous
 62
           7
100
AcDbCircle
 10
56.866774784908
 20
-1.613035129179
 30
0.000000182877
 40
0.1875
1001
TCAD
1000
TCW_CUSTOM_DATA
1002
{
1000
#$AUX@_ToolInfo Properties
1070
           8
1000
Insert^JCircle^JCenterAndPoint@Circle CenterAndPoint
1002
}
  0
CIRCLE
  5
1C9
100
AcDbEntity
  8
Hidden
370
           0
  6
HIDDEN
 62
           7
 48
0.20000000298
100
AcDbCircle
 10
56.866774784908
 20
-1.613035129179
 30
0.000000182877
 40
0.4375
1001
TCAD
1000
TCW_CUSTOM_DATA
1002
{
1000
#$AUX@_ToolInfo Properties
1070
           8
1000
Insert^JCircle^JCenterAndPoint@Circle CenterAndPoint
1002
}
  0
CIRCLE
  5
1CA
100
AcDbEntity
  8
Hidden
370
           0
 62
           7
 48
0.20000000298
100
AcDbCircle
 10
56.866774784908
 20
2.324464870821
 30
0.0
 40
0.46865625503
1001
TCAD
1000
TCW_CUSTOM_DATA
1002
{
1000
#$AUX@_ToolInfo Properties
1070
           8
1000
Insert^JCircle^JCenterAndPoint@Circle CenterAndPoint
1002
}
  0
LINE
  5
1CB
100
AcDbEntity
  8
Hidden
370
           0
 62
           7
 48
0.20000000298
100
AcDbLine
 10
57.684215526235
 20
2.037294446773
 30
0.0
 11
57.330718029339
 21
2.390762316674
 31
0.0
1001
TCAD
1000
TCW_CUSTOM_DATA
1002
{
1000
#$AUX@_ToolInfo Properties
1070
           8
1000
Insert^JLine^JPerpendicular@Line Perpendicular
1002
}
  0
LINE
  5
1CC
100
AcDbEntity
  8
Hidden
370
           0
 62
           7
 48
0.20000000298
100
AcDbLine
 10
57.154013721383
 20
1.507048201428
 30
0.0
 11
56.800516224487
 21
1.86051607133
 31
0.0
1001
TCAD
1000
TCW_CUSTOM_DATA
1002
{
1000
#$AUX@_ToolInfo Properties
1070
           8
1000
Insert^JLine^JPerpendicular@Line Perpendicular
1002
}
  0
LINE
  5
1CD
100
AcDbEntity
  8
Hidden
370
           0
  6
HIDDEN
 62
           7
 48
0.20000000298
100
AcDbLine
 10
57.154013721321
 20
1.507048201436
 30
0.0
 11
57.684215526173
 21
2.03729444678
 31
0.0
1001
TCAD
1000
TCW_CUSTOM_DATA
1002
{
1000
#$AUX@_ToolInfo Properties
1070
           8
1000
Insert^JLine^JSingle@Line Single
1002
}
  0
LINE
  5
1CE
100
AcDbEntity
  8
Exterior View
370
           0
  6
Continuous
 62
           7
 48
0.20000000298
100
AcDbLine
 10
53.453946592348
 20
7.504052973012
 30
0.0
 11
53.477038938972
 21
9.590175617896
 31
0.0
1001
TCAD
1000
TCW_CUSTOM_DATA
1002
{
1000
#$AUX@_ToolInfo Properties
1070
           8
1000
Insert^JLine^JSingle@Line Single
1002
}
  0
ARC
  5
1CF
100
AcDbEntity
  8
Exterior View
370
           0
  6
Continuous
 62
           7
 48
0.20000000298
100
AcDbCircle
 10
52.569079118875
 20
10.284835213711
 30
0.0
 40
1.087113663784
100
AcDbArc
 50
-90.142056839932
 51
-33.258486461021
  0
ARC
  5
1D0
100
AcDbEntity
  8
Exterior View
370
           0
  6
Continuous
 62
           7
 48
0.20000000298
100
AcDbCircle
 10
52.569079118875
 20
10.284835213711
 30
0.0
 40
1.087113663784
100
AcDbArc
 50
-33.258486461021
 51
-26.753787437314
  0
ARC
  5
1D1
100
AcDbEntity
  8
Exterior View
370
           0
  6
Continuous
 62
           7
 48
0.20000000298
100
AcDbCircle
 10
53.445790853389
 20
9.59052151876
 30
0.000000182877
 40
0.03125
100
AcDbArc
 50
-0.634210057852
 51
143.588125377485
  0
LINE
  5
1D2
100
AcDbEntity
  8
Exterior View
370
           0
  6
Continuous
 62
           7
100
AcDbLine
 10
55.073592825541
 20
2.090668755915
 30
0.0
 11
53.448592809491
 21
2.090668755915
 31
0.0
1001
TCAD
1000
TCW_CUSTOM_DATA
1002
{
1000
#$AUX@_ToolInfo Properties
1070
           8
1000
Insert^JLine^JPerpendicular@Line Perpendicular
1002
}
  0
LINE
  5
1D3
100
AcDbEntity
  8
Exterior View
370
           0
  6
Continuous
 62
           7
100
AcDbLine
 10
55.261092825541
 20
0.715668755915
 30
0.0
 11
53.261092825541
 21
0.715668755915
 31
0.0
1001
TCAD
1000
TCW_CUSTOM_DATA
1002
{
1000
#$AUX@_ToolInfo Properties
1070
           8
1000
Insert^JLine^JPerpendicular@Line Perpendicular
1002
}
  0
ARC
  5
1D4
100
AcDbEntity
  8
Exterior View
370
           0
  6
Continuous
 62
           7
100
AcDbCircle
 10
53.448592825541
 20
1.903168755915
 30
0.0
 40
0.1875
100
AcDbArc
 50
90.0
 51
179.999999999978
  0
ARC
  5
1D5
100
AcDbEntity
  8
Exterior View
370
           0
  6
Continuous
 62
           7
100
AcDbCircle
 10
55.073592825541
 20
1.903168755915
 30
0.0
 40
0.1875
100
AcDbArc
 50
0.0
 51
90.000000000017
  0
LINE
  5
1D6
100
AcDbEntity
  8
Exterior View
370
           0
  6
Continuous
 62
           7
100
AcDbLine
 10
53.411631364059
 20
1.063828571223
 30
0.0
 11
53.798054287022
 21
1.063828571223
 31
0.0
1001
TCAD
1000
TCW_CUSTOM_DATA
1002
{
1000
#$AUX@_ToolInfo Properties
1070
           8
1000
Insert^JLine^JPerpendicular@Line Perpendicular
1002
}
  0
LINE
  5
1D7
100
AcDbEntity
  8
Exterior View
370
           0
  6
Continuous
 62
           7
100
AcDbLine
 10
53.411631364059
 20
1.688828571223
 30
0.0
 11
53.798054287022
 21
1.688828571223
 31
0.0
1001
TCAD
1000
TCW_CUSTOM_DATA
1002
{
1000
#$AUX@_ToolInfo Properties
1070
           8
1000
Insert^JLine^JPerpendicular@Line Perpendicular
1002
}
  0
LINE
  5
1D8
100
AcDbEntity
  8
Exterior View
370
           0
  6
Continuous
 62
           7
100
AcDbLine
 10
53.411631364059
 20
1.688828571223
 30
0.0
 11
53.411631364059
 21
1.063828571223
 31
0.0
1001
TCAD
1000
TCW_CUSTOM_DATA
1002
{
1000
#$AUX@_ToolInfo Properties
1070
           8
1000
Insert^JLine^JPerpendicular@Line Perpendicular
1002
}
  0
LINE
  5
1D9
100
AcDbEntity
  8
Exterior View
370
           0
  6
Continuous
 62
           7
100
AcDbLine
 10
53.798054287022
 20
1.688828571223
 30
0.0
 11
53.798054287022
 21
1.063828571223
 31
0.0
1001
TCAD
1000
TCW_CUSTOM_DATA
1002
{
1000
#$AUX@_ToolInfo Properties
1070
           8
1000
Insert^JLine^JPerpendicular@Line Perpendicular
1002
}
  0
LINE
  5
1DA
100
AcDbEntity
  8
Exterior View
370
           0
  6
Continuous
 62
           7
100
AcDbLine
 10
53.849131364059
 20
1.063828571223
 30
0.0
 11
54.235554287022
 21
1.063828571223
 31
0.0
1001
TCAD
1000
TCW_CUSTOM_DATA
1002
{
1000
#$AUX@_ToolInfo Properties
1070
           8
1000
Insert^JLine^JPerpendicular@Line Perpendicular
1002
}
  0
LINE
  5
1DB
100
AcDbEntity
  8
Exterior View
370
           0
  6
Continuous
 62
           7
100
AcDbLine
 10
53.849131364059
 20
1.688828571223
 30
0.0
 11
54.235554287022
 21
1.688828571223
 31
0.0
1001
TCAD
1000
TCW_CUSTOM_DATA
1002
{
1000
#$AUX@_ToolInfo Properties
1070
           8
1000
Insert^JLine^JPerpendicular@Line Perpendicular
1002
}
  0
LINE
  5
1DC
100
AcDbEntity
  8
Exterior View
370
           0
  6
Continuous
 62
           7
100
AcDbLine
 10
53.849131364059
 20
1.688828571223
 30
0.0
 11
53.849131364059
 21
1.063828571223
 31
0.0
1001
TCAD
1000
TCW_CUSTOM_DATA
1002
{
1000
#$AUX@_ToolInfo Properties
1070
           8
1000
Insert^JLine^JPerpendicular@Line Perpendicular
1002
}
  0
LINE
  5
1DD
100
AcDbEntity
  8
Exterior View
370
           0
  6
Continuous
 62
           7
100
AcDbLine
 10
54.235554287022
 20
1.688828571223
 30
0.0
 11
54.235554287022
 21
1.063828571223
 31
0.0
1001
TCAD
1000
TCW_CUSTOM_DATA
1002
{
1000
#$AUX@_ToolInfo Properties
1070
           8
1000
Insert^JLine^JPerpendicular@Line Perpendicular
1002
}
  0
LINE
  5
1DE
100
AcDbEntity
  8
Exterior View
370
           0
  6
Continuous
 62
           7
100
AcDbLine
 10
54.286631364059
 20
1.063828571223
 30
0.0
 11
54.673054287022
 21
1.063828571223
 31
0.0
1001
TCAD
1000
TCW_CUSTOM_DATA
1002
{
1000
#$AUX@_ToolInfo Properties
1070
           8
1000
Insert^JLine^JPerpendicular@Line Perpendicular
1002
}
  0
LINE
  5
1DF
100
AcDbEntity
  8
Exterior View
370
           0
  6
Continuous
 62
           7
100
AcDbLine
 10
54.286631364059
 20
1.688828571223
 30
0.0
 11
54.673054287022
 21
1.688828571223
 31
0.0
1001
TCAD
1000
TCW_CUSTOM_DATA
1002
{
1000
#$AUX@_ToolInfo Properties
1070
           8
1000
Insert^JLine^JPerpendicular@Line Perpendicular
1002
}
  0
LINE
  5
1E0
100
AcDbEntity
  8
Exterior View
370
           0
  6
Continuous
 62
           7
100
AcDbLine
 10
54.286631364059
 20
1.688828571223
 30
0.0
 11
54.286631364059
 21
1.063828571223
 31
0.0
1001
TCAD
1000
TCW_CUSTOM_DATA
1002
{
1000
#$AUX@_ToolInfo Properties
1070
           8
1000
Insert^JLine^JPerpendicular@Line Perpendicular
1002
}
  0
LINE
  5
1E1
100
AcDbEntity
  8
Exterior View
370
           0
  6
Continuous
 62
           7
100
AcDbLine
 10
54.673054287022
 20
1.688828571223
 30
0.0
 11
54.673054287022
 21
1.063828571223
 31
0.0
1001
TCAD
1000
TCW_CUSTOM_DATA
1002
{
1000
#$AUX@_ToolInfo Properties
1070
           8
1000
Insert^JLine^JPerpendicular@Line Perpendicular
1002
}
  0
LINE
  5
1E2
100
AcDbEntity
  8
Exterior View
370
           0
  6
Continuous
 62
           7
100
AcDbLine
 10
54.724131364059
 20
1.063828571223
 30
0.0
 11
55.110554287022
 21
1.063828571223
 31
0.0
1001
TCAD
1000
TCW_CUSTOM_DATA
1002
{
1000
#$AUX@_ToolInfo Properties
1070
           8
1000
Insert^JLine^JPerpendicular@Line Perpendicular
1002
}
  0
LINE
  5
1E3
100
AcDbEntity
  8
Exterior View
370
           0
  6
Continuous
 62
           7
100
AcDbLine
 10
54.724131364059
 20
1.688828571223
 30
0.0
 11
55.110554287022
 21
1.688828571223
 31
0.0
1001
TCAD
1000
TCW_CUSTOM_DATA
1002
{
1000
#$AUX@_ToolInfo Properties
1070
           8
1000
Insert^JLine^JPerpendicular@Line Perpendicular
1002
}
  0
LINE
  5
1E4
100
AcDbEntity
  8
Exterior View
370
           0
  6
Continuous
 62
           7
100
AcDbLine
 10
54.724131364059
 20
1.688828571223
 30
0.0
 11
54.724131364059
 21
1.063828571223
 31
0.0
1001
TCAD
1000
TCW_CUSTOM_DATA
1002
{
1000
#$AUX@_ToolInfo Properties
1070
           8
1000
Insert^JLine^JPerpendicular@Line Perpendicular
1002
}
  0
LINE
  5
1E5
100
AcDbEntity
  8
Exterior View
370
           0
  6
Continuous
 62
           7
100
AcDbLine
 10
55.110554287022
 20
1.688828571223
 30
0.0
 11
55.110554287022
 21
1.063828571223
 31
0.0
1001
TCAD
1000
TCW_CUSTOM_DATA
1002
{
1000
#$AUX@_ToolInfo Properties
1070
           8
1000
Insert^JLine^JPerpendicular@Line Perpendicular
1002
}
  0
ELLIPSE
  5
1E6
100
AcDbEntity
  8
Hidden
370
           0
  6
HIDDEN
 62
           7
 48
0.20000000298
100
AcDbEllipse
 10
73.222415985703
 20
-0.867896068121
 30
0.0
 11
24.727945143435598
 21
0.0
 31
0.0
210
0.0
220
0.0
230
1.0
 40
0.420397137134
 41
2.69907909261457
 42
2.9946120769595366
  0
ELLIPSE
  5
1E7
100
AcDbEntity
  8
Hidden
370
           0
  6
HIDDEN
 62
           7
 48
0.20000000298
100
AcDbEllipse
 10
46.589273334319
 20
5.141991173453
 30
0.0
 11
5.114991653616471
 21
0.0
 31
0.0
210
0.0
220
0.0
230
1.0
 40
0.558547548958
 41
-0.5769467773221876
 42
0.0
  0
ARC
  5
1E8
100
AcDbEntity
  8
Exterior View
370
           0
  6
Continuous
 62
           7
 48
0.20000000298
100
AcDbCircle
 10
54.26109282554
 20
19.239828571223
 30
0.0
 40
11.875
100
AcDbArc
 50
-93.327838145246
 51
-86.67216183672
  0
ARC
  5
1E9
100
AcDbEntity
  8
Exterior View
370
           0
  6
Continuous
 62
           7
 48
0.20000000298
100
AcDbCircle
 10
53.579016120907
 20
7.509642239838
 30
0.000000182877
 40
0.125
100
AcDbArc
 50
179.36578994215
 51
266.672160894085
1001
TCAD
1000
TCW_CUSTOM_DATA
1002
{
1000
#$AUX@_ToolInfo Properties
1070
           8
1000
Insert^JArc^JTanToEntities@Arc TanToEntities
1002
}
  0
ARC
  5
1EA
100
AcDbEntity
  8
Exterior View
370
           0
  6
Continuous
 62
           7
 48
0.20000000298
100
AcDbCircle
 10
54.943169530175
 20
7.509642239839
 30
0.000000182877
 40
0.125
100
AcDbArc
 50
-86.672157246215
 51
0.634210057857
1001
TCAD
1000
TCW_CUSTOM_DATA
1002
{
1000
#$AUX@_ToolInfo Properties
1070
           8
1000
Insert^JArc^JTanToEntities@Arc TanToEntities
1002
}
  0
ARC
  5
1EB
100
AcDbEntity
  8
Hidden
370
           0
  6
HIDDEN
 62
           7
 48
0.20000000298
100
AcDbCircle
 10
48.06589934153
 20
5.151274728281
 30
0.0
 40
3.638377490241
100
AcDbArc
 50
-0.374619540451
 51
42.396527722409
1001
TCAD
1000
TCW_CUSTOM_DATA
1002
{
1000
#$AUX@_ToolInfo Properties
1070
           8
1000
Insert^JArc^JTanToEntities@Arc TanToEntities
1002
}
  0
ARC
  5
1EC
100
AcDbEntity
  8
Hidden
370
           0
  6
HIDDEN
 62
           7
 48
0.20000000298
100
AcDbCircle
 10
53.553580867203
 20
10.161606727925
 30
0.0
 40
3.792509083639
100
AcDbArc
 50
-171.196151401536
 51
-137.603472277591
1001
TCAD
1000
TCW_CUSTOM_DATA
1002
{
1000
#$AUX@_ToolInfo Properties
1070
           8
1000
Insert^JArc^JTanToEntities@Arc TanToEntities
1002
}
  0
CIRCLE
  5
1ED
100
AcDbEntity
  8
Exterior View
370
           0
  6
Continuous
 62
           7
 48
0.20000000298
100
AcDbCircle
 10
53.823592825502
 20
7.873201675628
 30
0.000000182877
 40
0.095
1001
TCAD
1000
TCW_CUSTOM_DATA
1002
{
1000
#$AUX@_ToolInfo Properties
1070
           8
1000
Insert^JCircle^JCenterAndPoint@Circle CenterAndPoint
1002
}
  0
POINT
  5
1EE
100
AcDbEntity
  8
Exterior View
  6
Continuous
 62
           7
100
AcDbPoint
 10
53.823592825502
 20
7.873201675628
 30
0.000000182877
1001
TCAD
1000
TCW_CUSTOM_DATA
1002
{
1000
#$AUX@_ToolInfo Properties
1070
           8
1000
Insert^JPoint^JCross@Point Cross
1002
}
1000
TC25ExternalObject
1002
{
1000
TCW30POINT
1000

1070
           0
1071
        0
1040
1.0
1040
0.0
1000
Continuous
1000
Exterior View
1070
          21
1071
        1
1071
      242
1010
53.823592825502
1020
7.873201675628
1030
0.000000182877
1070
           3
1071
-2147483645
1070
           1
1000
#$AUX@_ToolInfo Properties
1070
           8
1000
Insert^JPoint^JCross@Point Cross
1000
$POINTSIZE
1070
           5
1040
0.25
1000
$POINTTYPE
1070
          18
1070
           3
1000
ExplodeScale
1070
           5
1040
1.0
1002
}
  0
CIRCLE
  5
1EF
100
AcDbEntity
  8
Exterior View
370
           0
  6
Continuous
 62
           7
 48
0.20000000298
100
AcDbCircle
 10
54.698592825502
 20
7.873201675628
 30
0.000000182877
 40
0.095
1001
TCAD
1000
TCW_CUSTOM_DATA
1002
{
1000
#$AUX@_ToolInfo Properties
1070
           8
1000
Insert^JCircle^JCenterAndPoint@Circle CenterAndPoint
1002
}
  0
POINT
  5
1F0
100
AcDbEntity
  8
Exterior View
  6
Continuous
 62
           7
100
AcDbPoint
 10
54.698592825502
 20
7.873201675628
 30
0.000000182877
1001
TCAD
1000
TCW_CUSTOM_DATA
1002
{
1000
#$AUX@_ToolInfo Properties
1070
           8
1000
Insert^JPoint^JCross@Point Cross
1002
}
1000
TC25ExternalObject
1002
{
1000
TCW30POINT
1000

1070
           0
1071
        0
1040
1.0
1040
0.0
1000
Continuous
1000
Exterior View
1070
          21
1071
        1
1071
      242
1010
54.698592825502
1020
7.873201675628
1030
0.000000182877
1070
           3
1071
-2147483645
1070
           1
1000
#$AUX@_ToolInfo Properties
1070
           8
1000
Insert^JPoint^JCross@Point Cross
1000
$POINTSIZE
1070
           5
1040
0.25
1000
$POINTTYPE
1070
          18
1070
           3
1000
ExplodeScale
1070
           5
1040
1.0
1002
}
  0
ARC
  5
1F1
100
AcDbEntity
  8
Exterior View
370
           0
  6
Continuous
 62
           7
100
AcDbCircle
 10
55.095866203538
 20
7.831508399701
 30
0.000000182877
 40
0.03125
100
AcDbArc
 50
28.706696993714
 51
180.634210057852
  0
ARC
  5
1F2
100
AcDbEntity
  8
Exterior View
370
           0
  6
Continuous
 62
           7
 48
0.20000000298
100
AcDbCircle
 10
54.262074947849
 20
9.335362371551
 30
0.000000182877
 40
0.785844276127
100
AcDbArc
 50
0.634210057857
 51
89.825363420545
  0
LINE
  5
1F3
100
AcDbEntity
  8
Exterior View
370
           0
  6
Continuous
 62
           7
 48
0.20000000298
100
AcDbLine
 10
54.264470184375
 20
10.121202997355
 30
0.0
 11
54.06882809277
 21
10.121206597401
 31
0.0
1001
TCAD
1000
TCW_CUSTOM_DATA
1002
{
1000
#$AUX@_ToolInfo Properties
1070
           8
1000
Insert^JLine^JSingle@Line Single
1002
}
  0
ARC
  5
1F4
100
AcDbEntity
  8
Exterior View
370
           0
  6
Continuous
 62
           7
 48
0.20000000298
100
AcDbCircle
 10
54.069425729109
 20
9.527803840949
 30
0.0
 40
0.593403057402
100
AcDbArc
 50
90.057704531988
 51
153.188442281929
  0
CIRCLE
  5
1F5
100
AcDbEntity
  8
Exterior View
370
           0
  6
Continuous
 62
           7
 48
0.20000000298
100
AcDbCircle
 10
54.667321494224
 20
9.402951245468
 30
0.000000182877
 40
0.095
1001
TCAD
1000
TCW_CUSTOM_DATA
1002
{
1000
#$AUX@_ToolInfo Properties
1070
           8
1000
Insert^JCircle^JCenterAndPoint@Circle CenterAndPoint
1002
}
  0
POINT
  5
1F6
100
AcDbEntity
  8
Exterior View
  6
Continuous
 62
           7
100
AcDbPoint
 10
54.667321494224
 20
9.402951245468
 30
0.000000182877
1001
TCAD
1000
TCW_CUSTOM_DATA
1002
{
1000
#$AUX@_ToolInfo Properties
1070
           8
1000
Insert^JPoint^JCross@Point Cross
1002
}
1000
TC25ExternalObject
1002
{
1000
TCW30POINT
1000

1070
           0
1071
        0
1040
1.0
1040
0.0
1000
Continuous
1000
Exterior View
1070
          21
1071
        1
1071
      242
1010
54.667321494224
1020
9.402951245468
1030
0.000000182877
1070
           3
1071
-2147483645
1070
           1
1000
#$AUX@_ToolInfo Properties
1070
           8
1000
Insert^JPoint^JCross@Point Cross
1000
$POINTSIZE
1070
           5
1040
0.25
1000
$POINTTYPE
1070
          18
1070
           3
1000
ExplodeScale
1070
           5
1040
1.0
1002
}
  0
POINT
  5
1F7
100
AcDbEntity
  8
Exterior View
  6
Continuous
 62
           7
100
AcDbPoint
 10
53.878864839977
 20
9.634511118188
 30
0.000000182877
1001
TCAD
1000
TCW_CUSTOM_DATA
1002
{
1000
#$AUX@_ToolInfo Properties
1070
           8
1000
Insert^JPoint^JCross@Point Cross
1002
}
1000
TC25ExternalObject
1002
{
1000
TCW30POINT
1000

1070
           0
1071
        0
1040
1.0
1040
0.0
1000
Continuous
1000
Exterior View
1070
          21
1071
        1
1071
      242
1010
53.878864839977
1020
9.634511118188
1030
0.000000182877
1070
           3
1071
-2147483645
1070
           1
1000
#$AUX@_ToolInfo Properties
1070
           8
1000
Insert^JPoint^JCross@Point Cross
1000
$POINTSIZE
1070
           5
1040
0.25
1000
$POINTTYPE
1070
          18
1070
           3
1000
ExplodeScale
1070
           5
1040
1.0
1002
}
  0
CIRCLE
  5
1F8
100
AcDbEntity
  8
Exterior View
370
           0
  6
Continuous
 62
           7
 48
0.20000000298
100
AcDbCircle
 10
53.878864839977
 20
9.634511118188
 30
0.000000182877
 40
0.095
1001
TCAD
1000
TCW_CUSTOM_DATA
1002
{
1000
#$AUX@_ToolInfo Properties
1070
           8
1000
Insert^JCircle^JCenterAndPoint@Circle CenterAndPoint
1002
}
  0
LINE
  5
1F9
100
AcDbEntity
  8
Exterior View
370
           0
  6
Continuous
 62
           7
100
AcDbLine
 10
52.979842814365
 20
3.574418755915
 30
0.000000182877
 11
55.542342825541
 21
3.574418755915
 31
0.000000182877
1001
TCAD
1000
TCW_CUSTOM_DATA
1002
{
1000
#$AUX@_ToolInfo Properties
1070
           8
1000
Insert^JLine^JLine2Arcs@Line Line2Arcs
1002
}
  0
LINE
  5
1FA
100
AcDbEntity
  8
Exterior View
370
           0
  6
Continuous
 62
           7
100
AcDbLine
 10
53.948592832317
 20
2.574418755915
 30
0.000000182877
 11
54.573592832317
 21
2.574418755915
 31
0.000000182877
1001
TCAD
1000
TCW_CUSTOM_DATA
1002
{
1000
#$AUX@_ToolInfo Properties
1070
           8
1000
Insert^JLine^JPerpendicular@Line Perpendicular
1002
}
  0
ARC
  5
1FB
100
AcDbEntity
  8
Exterior View
370
           0
  6
Continuous
 62
           7
100
AcDbCircle
 10
52.979842825541
 20
3.199418755915
 30
0.000000182877
 40
0.375
100
AcDbArc
 50
90.0
 51
256.153762878351
1001
TCAD
1000
TCW_CUSTOM_DATA
1002
{
1000
#$AUX@_ToolInfo Properties
1070
           8
1000
Insert^JCircle^JCenterAndPoint@Circle CenterAndPoint
1002
}
  0
ARC
  5
1FC
100
AcDbEntity
  8
Exterior View
370
           0
  6
Continuous
 62
           7
100
AcDbCircle
 10
55.542342825541
 20
3.199418755915
 30
0.000000182877
 40
0.375
100
AcDbArc
 50
-76.153762707894
 51
90.0
1001
TCAD
1000
TCW_CUSTOM_DATA
1002
{
1000
#$AUX@_ToolInfo Properties
1070
           8
1000
Insert^JCircle^JCenterAndPoint@Circle CenterAndPoint
1002
}
  0
LINE
  5
1FD
100
AcDbEntity
  8
Exterior View
370
           0
  6
Continuous
 62
           7
100
AcDbLine
 10
52.890098922234
 20
2.835315704816
 30
0.000000182877
 11
53.948592832317
 21
2.574418755915
 31
0.000000182877
1001
TCAD
1000
TCW_CUSTOM_DATA
1002
{
1000
#$AUX@_ToolInfo Properties
1070
           8
1000
Insert^JLine^JTanFromArc@Line TanFromArc
1002
}
  0
LINE
  5
1FE
100
AcDbEntity
  8
Exterior View
370
           0
  6
Continuous
 62
           7
100
AcDbLine
 10
55.632086729931
 20
2.835315705083
 30
0.000000182877
 11
54.573592832317
 21
2.574418755915
 31
0.000000182877
1001
TCAD
1000
TCW_CUSTOM_DATA
1002
{
1000
#$AUX@_ToolInfo Properties
1070
           8
1000
Insert^JLine^JTanFromArc@Line TanFromArc
1002
}
  0
LINE
  5
1FF
100
AcDbEntity
  8
Exterior View
370
           0
  6
Continuous
 62
           7
100
AcDbLine
 10
52.979842814365
 20
7.016328571222
 30
0.000000182877
 11
55.542342825541
 21
7.016328571222
 31
0.000000182877
1001
TCAD
1000
TCW_CUSTOM_DATA
1002
{
1000
#$AUX@_ToolInfo Properties
1070
           8
1000
Insert^JLine^JLine2Arcs@Line Line2Arcs
1002
}
  0
LINE
  5
200
100
AcDbEntity
  8
Exterior View
370
           0
  6
Continuous
 62
           7
100
AcDbLine
 10
53.948592832317
 20
6.016328571222
 30
0.000000182877
 11
54.573592832317
 21
6.016328571222
 31
0.000000182877
1001
TCAD
1000
TCW_CUSTOM_DATA
1002
{
1000
#$AUX@_ToolInfo Properties
1070
           8
1000
Insert^JLine^JPerpendicular@Line Perpendicular
1002
}
  0
ARC
  5
201
100
AcDbEntity
  8
Exterior View
370
           0
  6
Continuous
 62
           7
100
AcDbCircle
 10
52.979842825541
 20
6.641328571222
 30
0.000000182877
 40
0.375
100
AcDbArc
 50
90.0
 51
256.153762878351
1001
TCAD
1000
TCW_CUSTOM_DATA
1002
{
1000
#$AUX@_ToolInfo Properties
1070
           8
1000
Insert^JCircle^JCenterAndPoint@Circle CenterAndPoint
1002
}
  0
ARC
  5
202
100
AcDbEntity
  8
Exterior View
370
           0
  6
Continuous
 62
           7
100
AcDbCircle
 10
55.542342825541
 20
6.641328571222
 30
0.000000182877
 40
0.375
100
AcDbArc
 50
-76.153762707894
 51
90.0
1001
TCAD
1000
TCW_CUSTOM_DATA
1002
{
1000
#$AUX@_ToolInfo Properties
1070
           8
1000
Insert^JCircle^JCenterAndPoint@Circle CenterAndPoint
1002
}
  0
LINE
  5
203
100
AcDbEntity
  8
Exterior View
370
           0
  6
Continuous
 62
           7
100
AcDbLine
 10
52.890098922234
 20
6.277225520124
 30
0.000000182877
 11
53.948592832317
 21
6.016328571222
 31
0.000000182877
1001
TCAD
1000
TCW_CUSTOM_DATA
1002
{
1000
#$AUX@_ToolInfo Properties
1070
           8
1000
Insert^JLine^JTanFromArc@Line TanFromArc
1002
}
  0
LINE
  5
204
100
AcDbEntity
  8
Exterior View
370
           0
  6
Continuous
 62
           7
100
AcDbLine
 10
55.632086729931
 20
6.277225520391
 30
0.000000182877
 11
54.573592832317
 21
6.016328571222
 31
0.000000182877
1001
TCAD
1000
TCW_CUSTOM_DATA
1002
{
1000
#$AUX@_ToolInfo Properties
1070
           8
1000
Insert^JLine^JTanFromArc@Line TanFromArc
1002
}
  0
LINE
  5
205
100
AcDbEntity
  8
Exterior View
370
           0
  6
Continuous
 62
           7
100
AcDbLine
 10
53.261092825541
 20
0.715668755915
 30
0.0
 11
53.261092825541
 21
1.90316874281
 31
0.0
1001
TCAD
1000
TCW_CUSTOM_DATA
1002
{
1000
#$AUX@_ToolInfo Properties
1070
           8
1000
Insert^JLine^JPerpendicular@Line Perpendicular
1002
}
  0
LINE
  5
206
100
AcDbEntity
  8
Exterior View
370
           0
  6
Continuous
 62
           7
100
AcDbLine
 10
55.261092825541
 20
0.715668755915
 30
0.0
 11
55.261092825541
 21
1.90316874281
 31
0.0
1001
TCAD
1000
TCW_CUSTOM_DATA
1002
{
1000
#$AUX@_ToolInfo Properties
1070
           8
1000
Insert^JLine^JPerpendicular@Line Perpendicular
1002
}
  0
LINE
  5
207
100
AcDbEntity
  8
Exterior View
370
           0
  6
Continuous
 62
           7
100
AcDbLine
 10
53.261092825541
 20
0.780668755915
 30
0.0
 11
55.261092825541
 21
0.780668755915
 31
0.0
1001
TCAD
1000
TCW_CUSTOM_DATA
1002
{
1000
#$AUX@_ToolInfo Properties
1070
           8
1000
Insert^JLine^JPerpendicular@Line Perpendicular
1002
}
  0
LINE
  5
208
100
AcDbEntity
  8
Exterior View
370
           0
  6
Continuous
 62
           7
100
AcDbLine
 10
55.047871082096
 20
9.344060746382
 30
0.0
 11
55.061850911049
 21
8.081147183501
 31
0.0
  0
LINE
  5
209
100
AcDbEntity
  8
Exterior View
370
           0
  6
Continuous
 62
           7
100
AcDbLine
 10
55.064618117955
 20
7.831162498838
 30
0.0
 11
55.068161872506
 21
7.511025843291
 31
0.0
  0
POINT
  5
20A
100
AcDbEntity
  8
0
  6
Continuous
 62
           7
100
AcDbPoint
 10
56.866774784883
 20
-1.613035129206
 30
0.000000182877
1001
TCAD
1000
TCW_CUSTOM_DATA
1002
{
1000
#$AUX@_ToolInfo Properties
1070
           8
1000
Insert^JPoint^JCross@Point Cross
1002
}
1000
TC25ExternalObject
1002
{
1000
TCW30POINT
1000

1070
           0
1071
        0
1040
1.0
1040
0.0
1000
Continuous
1000
0
1070
          21
1071
        1
1071
      242
1010
56.866774784883
1020
-1.613035129206
1030
0.000000182877
1070
           3
1071
-2147483645
1070
           1
1000
#$AUX@_ToolInfo Properties
1070
           8
1000
Insert^JPoint^JCross@Point Cross
1000
$POINTSIZE
1070
           5
1040
0.25
1000
$POINTTYPE
1070
          18
1070
           3
1000
ExplodeScale
1070
           5
1040
1.0
1002
}
  0
POINT
  5
20B
100
AcDbEntity
  8
0
  6
Continuous
 62
           7
100
AcDbPoint
 10
58.533452105571
 20
0.310746260672
 30
0.000000182875
1001
TCAD
1000
TCW_CUSTOM_DATA
1002
{
1000
#$AUX@_ToolInfo Properties
1070
           8
1000
Insert^JPoint^JCross@Point Cross
1002
}
1000
TC25ExternalObject
1002
{
1000
TCW30POINT
1000

1070
           0
1071
        0
1040
1.0
1040
0.0
1000
Continuous
1000
0
1070
          21
1071
        1
1071
      242
1010
58.533452105571
1020
0.310746260672
1030
0.000000182875
1070
           3
1071
-2147483645
1070
           1
1000
#$AUX@_ToolInfo Properties
1070
           8
1000
Insert^JPoint^JCross@Point Cross
1000
$POINTSIZE
1070
           5
1040
0.25
1000
$POINTTYPE
1070
          18
1070
           3
1000
ExplodeScale
1070
           5
1040
1.0
1002
}
  0
POINT
  5
20C
100
AcDbEntity
  8
0
  6
Continuous
 62
           7
100
AcDbPoint
 10
56.866774784908
 20
2.324464870821
 30
0.000000182875
1001
TCAD
1000
TCW_CUSTOM_DATA
1002
{
1000
#$AUX@_ToolInfo Properties
1070
           8
1000
Insert^JPoint^JCross@Point Cross
1002
}
1000
TC25ExternalObject
1002
{
1000
TCW30POINT
1000

1070
           0
1071
        0
1040
1.0
1040
0.0
1000
Continuous
1000
0
1070
          21
1071
        1
1071
      242
1010
56.866774784908
1020
2.324464870821
1030
0.000000182875
1070
           3
1071
-2147483645
1070
           1
1000
#$AUX@_ToolInfo Properties
1070
           8
1000
Insert^JPoint^JCross@Point Cross
1000
$POINTSIZE
1070
           5
1040
0.25
1000
$POINTTYPE
1070
          18
1070
           3
1000
ExplodeScale
1070
           5
1040
1.0
1002
}
  0
POINT
  5
20D
100
AcDbEntity
  8
0
  6
Continuous
 62
           7
100
AcDbPoint
 10
57.202333510692
 20
0.846938752458
 30
0.000000182875
1001
TCAD
1000
TCW_CUSTOM_DATA
1002
{
1000
#$AUX@_ToolInfo Properties
1070
           8
1000
Insert^JPoint^JCross@Point Cross
1002
}
1000
TC25ExternalObject
1002
{
1000
TCW30POINT
1000

1070
           0
1071
        0
1040
1.0
1040
0.0
1000
Continuous
1000
0
1070
          21
1071
        1
1071
      242
1010
57.202333510692
1020
0.846938752458
1030
0.000000182875
1070
           3
1071
-2147483645
1070
           1
1000
#$AUX@_ToolInfo Properties
1070
           8
1000
Insert^JPoint^JCross@Point Cross
1000
$POINTSIZE
1070
           5
1040
0.25
1000
$POINTTYPE
1070
          18
1070
           3
1000
ExplodeScale
1070
           5
1040
1.0
1002
}
  0
LINE
  5
20E
100
AcDbEntity
  8
Exterior View
370
           0
  6
Continuous
 62
           7
100
AcDbLine
 10
51.138336201894
 20
13.043257688816
 30
0.0
 11
50.793922013382
 21
12.446714815465
 31
0.0
1001
TCAD
1000
TCW_CUSTOM_DATA
1002
{
1000
#$AUX@_ToolInfo Properties
1070
           8
1000
Insert^JLine^JPerpendicular@Line Perpendicular
1002
}
  0
LINE
  5
20F
100
AcDbEntity
  8
0
370
           0
  6
Continuous
 62
           7
100
AcDbLine
 10
10.167908176053
 20
-3.407187328197
 30
-0.000000130625
 11
10.167908176014
 21
12.12270652779
 31
-0.000000130625
1001
TCAD
1000
TCW_CUSTOM_DATA
1002
{
1000
#$AUX@_ToolInfo Properties
1070
           8
1000
Insert^JLine^JSingle@Line Single
1002
}
  0
ARC
  5
210
100
AcDbEntity
  8
Exterior View
370
           0
  6
Continuous
 62
           7
 48
0.20000000298
100
AcDbCircle
 10
96.845965738815
 20
5.38108347304
 30
0.0
 40
2.166529691915
100
AcDbArc
 50
169.308499120574
 51
180.045848797911
1001
TCAD
1000
TCW_CUSTOM_DATA
1002
{
1000
#$AUX@_ToolInfo Properties
1070
           8
1000
Insert^JArc^JTanToEntities@Arc TanToEntities
1002
}
  0
ELLIPSE
  5
211
100
AcDbEntity
  8
Exterior View
370
           0
  6
Continuous
 62
           7
 48
0.20000000298
100
AcDbEllipse
 10
103.52910222272
 20
5.381083511951
 30
0.0
 11
0.0000000000000001
 21
-2.1665296919150285
 31
0.0
210
0.0
220
0.0
230
1.0
 40
0.992524563628
 41
1.5699961259861799
 42
1.7573982307936569
1001
TCAD
1000
TCW_CUSTOM_DATA
1002
{
1000
#$AUX@_ToolInfo Properties
1070
           8
1000
Insert^JArc^JTanToEntities@Arc TanToEntities
1002
}
  0
ARC
  5
212
100
AcDbEntity
  8
Exterior View
370
           0
  6
Continuous
 62
           7
 48
0.20000000298
100
AcDbCircle
 10
98.487422396313
 20
15.011858017049
 30
0.0
 40
1.087113663784
100
AcDbArc
 50
-90.142056839932
 51
-33.258486461022
  0
ARC
  5
213
100
AcDbEntity
  8
Exterior View
370
           0
  6
Continuous
 62
           7
 48
0.20000000298
100
AcDbCircle
 10
101.484445251919
 20
12.813704400654
 30
0.0
 40
0.5
100
AcDbArc
 50
-179.365789942143
 51
-140.219834894806
  0
ELLIPSE
  5
214
100
AcDbEntity
  8
Exterior View
370
           0
  6
Continuous
 62
           7
100
AcDbEllipse
 10
54.109486692487
 20
33.847294769903
 30
0.0
 11
0.0000000000000011
 21
-18.086916760478083
 31
0.0
210
0.0
220
0.0
230
1.0
 40
0.882233592144
 41
-0.1924671979090304
 42
0.0
  0
ELLIPSE
  5
215
100
AcDbEntity
  8
Exterior View
370
           0
  6
Continuous
 62
           7
100
AcDbEllipse
 10
51.636112027549
 20
19.461285624077
 30
0.0
 11
0.0000000000000002
 21
-3.4302773166423925
 31
0.0
210
0.0
220
0.0
230
1.0
 40
0.882233592144
 41
4.7123889803846897
 42
6.0907181920516908
  0
ELLIPSE
  5
216
100
AcDbEntity
  8
Exterior View
370
           0
  6
Continuous
 62
           7
100
AcDbEllipse
 10
46.954848280116
 20
24.33992793979
 30
0.0
 11
3.404957868316842
 21
0.0
 31
0.0
210
0.0
220
0.0
230
1.0
 40
0.961410681296
 41
-0.5769467749498761
 42
0.0
  0
CIRCLE
  5
217
100
AcDbEntity
  8
Exterior View
370
           0
  6
Continuous
 62
           7
100
AcDbCircle
 10
51.168565463247
 20
19.653670933905
 30
0.000000130626
 40
0.125
1001
TCAD
1000
TCW_CUSTOM_DATA
1002
{
1000
#$AUX@_ToolInfo Properties
1070
           8
1000
Insert^JCircle^JCenterAndPoint@Circle CenterAndPoint
1002
}
  0
LINE
  5
218
100
AcDbEntity
  8
Exterior View
370
           0
  6
Continuous
 62
           7
 48
0.20000000298
100
AcDbLine
 10
51.481053568688
 20
19.903685801378
 30
0.0
 11
51.481077357098
 21
19.403685801944
 31
0.0
1001
TCAD
1000
TCW_CUSTOM_DATA
1002
{
1000
#$AUX@_ToolInfo Properties
1070
           8
1000
Insert^JLine^JPerpendicular@Line Perpendicular
1002
}
  0
LINE
  5
219
100
AcDbEntity
  8
Exterior View
370
           0
  6
Continuous
 62
           7
 48
0.20000000298
100
AcDbLine
 10
50.856077357805
 20
19.403656066432
 30
0.0
 11
50.856053569396
 21
19.903656065866
 31
0.0
1001
TCAD
1000
TCW_CUSTOM_DATA
1002
{
1000
#$AUX@_ToolInfo Properties
1070
           8
1000
Insert^JLine^JPerpendicular@Line Perpendicular
1002
}
  0
LINE
  5
21A
100
AcDbEntity
  8
Exterior View
370
           0
  6
Continuous
 62
           7
 48
0.20000000298
100
AcDbLine
 10
51.481077357098
 20
19.403685801944
 30
0.0
 11
50.856077357805
 21
19.403656066432
 31
0.0
1001
TCAD
1000
TCW_CUSTOM_DATA
1002
{
1000
#$AUX@_ToolInfo Properties
1070
           8
1000
Insert^JLine^JSingle@Line Single
1002
}
  0
LINE
  5
21B
100
AcDbEntity
  8
Exterior View
370
           0
  6
Continuous
 62
           7
 48
0.20000000298
100
AcDbLine
 10
51.481053568688
 20
19.903685801378
 30
0.0
 11
50.856053569396
 21
19.903656065866
 31
0.0
1001
TCAD
1000
TCW_CUSTOM_DATA
1002
{
1000
#$AUX@_ToolInfo Properties
1070
           8
1000
Insert^JLine^JSingle@Line Single
1002
}
  0
ELLIPSE
  5
21C
100
AcDbEntity
  8
Exterior View
370
           0
  6
Continuous
 62
           7
100
AcDbEllipse
 10
62.250613582885
 20
18.347888793374
 30
0.0
 11
13.768133082685859
 21
0.0
 31
0.0
210
0.0
220
0.0
230
1.0
 40
0.713473958579
 41
2.6990790426258267
 42
2.986892704147877
  0
ELLIPSE
  5
21D
100
AcDbEntity
  8
Exterior View
370
           0
  6
Continuous
 62
           7
100
AcDbEllipse
 10
50.760140028656
 20
19.46079289006
 30
0.0
 11
0.0000000000000001
 21
-2.1665296919150285
 31
0.0
210
0.0
220
0.0
230
1.0
 40
0.992524563628
 41
4.5257870763859289
 42
4.7131891811934068
1001
TCAD
1000
TCW_CUSTOM_DATA
1002
{
1000
#$AUX@_ToolInfo Properties
1070
           8
1000
Insert^JArc^JTanToEntities@Arc TanToEntities
1002
}
  0
CIRCLE
  5
21E
100
AcDbEntity
  8
Exterior View
370
           0
  6
Continuous
 62
           7
 48
0.20000000298
100
AcDbCircle
 10
49.837446868368
 20
19.117478442119
 30
0.000000130626
 40
0.250000000013
1001
TCAD
1000
TCW_CUSTOM_DATA
1002
{
1000
#$AUX@_ToolInfo Properties
1070
           8
1000
Insert^JCircle^JCenterAndPoint@Circle CenterAndPoint
1002
}
  0
CIRCLE
  5
21F
100
AcDbEntity
  8
Exterior View
370
           0
  6
Continuous
 62
           7
 48
0.20000000298
100
AcDbCircle
 10
49.837446868368
 20
19.117478442119
 30
0.000000130626
 40
0.468656255055
1001
TCAD
1000
TCW_CUSTOM_DATA
1002
{
1000
#$AUX@_ToolInfo Properties
1070
           8
1000
Insert^JCircle^JCenterAndPoint@Circle CenterAndPoint
1002
}
  0
LINE
  5
220
100
AcDbEntity
  8
Exterior View
370
           0
  6
Continuous
 62
           7
 48
0.20000000298
100
AcDbLine
 10
49.462545893806
 20
19.898583734241
 30
0.0
 11
49.462530515051
 21
19.398683729086
 31
0.0
1001
TCAD
1000
TCW_CUSTOM_DATA
1002
{
1000
#$AUX@_ToolInfo Properties
1070
           8
1000
Insert^JLine^JPerpendicular@Line Perpendicular
1002
}
  0
LINE
  5
221
100
AcDbEntity
  8
Exterior View
370
           0
  6
Continuous
 62
           7
 48
0.20000000298
100
AcDbLine
 10
50.21239590154
 20
19.898560666108
 30
0.0
 11
50.212380522784
 21
19.398660660953
 31
0.0
1001
TCAD
1000
TCW_CUSTOM_DATA
1002
{
1000
#$AUX@_ToolInfo Properties
1070
           8
1000
Insert^JLine^JPerpendicular@Line Perpendicular
1002
}
  0
LINE
  5
222
100
AcDbEntity
  8
Exterior View
370
           0
  6
Continuous
 62
           7
 48
0.20000000298
100
AcDbLine
 10
49.462545893806
 20
19.898583734241
 30
0.0
 11
50.21239590154
 21
19.898560666108
 31
0.0
1001
TCAD
1000
TCW_CUSTOM_DATA
1002
{
1000
#$AUX@_ToolInfo Properties
1070
           8
1000
Insert^JLine^JPerpendicular@Line Perpendicular
1002
}
  0
CIRCLE
  5
223
100
AcDbEntity
  8
Exterior View
370
           0
  6
Continuous
 62
           7
100
AcDbCircle
 10
51.50412418903
 20
17.193697052269
 30
0.0
 40
0.125
1001
TCAD
1000
TCW_CUSTOM_DATA
1002
{
1000
#$AUX@_ToolInfo Properties
1070
           8
1000
Insert^JCircle^JCenterAndPoint@Circle CenterAndPoint
1002
}
  0
CIRCLE
  5
224
100
AcDbEntity
  8
Exterior View
370
           0
  6
Continuous
 62
           7
100
AcDbCircle
 10
51.50412418903
 20
17.193697052269
 30
0.0
 40
0.1875
1001
TCAD
1000
TCW_CUSTOM_DATA
1002
{
1000
#$AUX@_ToolInfo Properties
1070
           8
1000
Insert^JCircle^JCenterAndPoint@Circle CenterAndPoint
1002
}
  0
CIRCLE
  5
225
100
AcDbEntity
  8
Exterior View
370
           0
  6
Continuous
 62
           7
 48
0.20000000298
100
AcDbCircle
 10
51.50412418903
 20
17.193697052269
 30
0.0
 40
0.4375
1001
TCAD
1000
TCW_CUSTOM_DATA
1002
{
1000
#$AUX@_ToolInfo Properties
1070
           8
1000
Insert^JCircle^JCenterAndPoint@Circle CenterAndPoint
1002
}
  0
CIRCLE
  5
226
100
AcDbEntity
  8
Exterior View
370
           0
  6
Continuous
 62
           7
 48
0.20000000298
100
AcDbCircle
 10
51.50412418903
 20
21.131197052269
 30
0.000000130631
 40
0.46865625503
1001
TCAD
1000
TCW_CUSTOM_DATA
1002
{
1000
#$AUX@_ToolInfo Properties
1070
           8
1000
Insert^JCircle^JCenterAndPoint@Circle CenterAndPoint
1002
}
  0
LINE
  5
227
100
AcDbEntity
  8
Exterior View
370
           0
  6
Continuous
 62
           7
 48
0.20000000298
100
AcDbLine
 10
50.686683447703
 20
20.84402662822
 30
0.0
 11
51.0401809446
 21
21.197494498121
 31
0.0
1001
TCAD
1000
TCW_CUSTOM_DATA
1002
{
1000
#$AUX@_ToolInfo Properties
1070
           8
1000
Insert^JLine^JPerpendicular@Line Perpendicular
1002
}
  0
LINE
  5
228
100
AcDbEntity
  8
Exterior View
370
           0
  6
Continuous
 62
           7
 48
0.20000000298
100
AcDbLine
 10
51.216885252555
 20
20.313780382876
 30
0.0
 11
51.570382749452
 21
20.667248252777
 31
0.0
1001
TCAD
1000
TCW_CUSTOM_DATA
1002
{
1000
#$AUX@_ToolInfo Properties
1070
           8
1000
Insert^JLine^JPerpendicular@Line Perpendicular
1002
}
  0
CIRCLE
  5
229
100
AcDbEntity
  8
Exterior View
370
           0
  6
Continuous
 62
           7
 48
0.20000000298
100
AcDbCircle
 10
51.50412418903
 20
21.131197052269
 30
0.000000130631
 40
0.25
1001
TCAD
1000
TCW_CUSTOM_DATA
1002
{
1000
#$AUX@_ToolInfo Properties
1070
           8
1000
Insert^JCircle^JCenterAndPoint@Circle CenterAndPoint
1002
}
  0
LINE
  5
22A
100
AcDbEntity
  8
Exterior View
370
           0
  6
Continuous
 62
           7
 48
0.20000000298
100
AcDbLine
 10
51.216885252618
 20
20.313780382883
 30
0.0
 11
50.686683447766
 21
20.844026628227
 31
0.0
1001
TCAD
1000
TCW_CUSTOM_DATA
1002
{
1000
#$AUX@_ToolInfo Properties
1070
           8
1000
Insert^JLine^JSingle@Line Single
1002
}
  0
ARC
  5
22B
100
AcDbEntity
  8
Exterior View
370
           0
  6
Continuous
 62
           7
 48
0.20000000298
100
AcDbCircle
 10
51.751671846827
 20
19.025589841735
 30
0.0
 40
2.512466152563
100
AcDbArc
 50
-149.213589343369
 51
-103.13278637446
1001
TCAD
1000
TCW_CUSTOM_DATA
1002
{
1000
#$AUX@_ToolInfo Properties
1070
           8
1000
Insert^JArc^JTriplePoint132@Arc TriplePoint132
1002
}
  0
LINE
  5
22C
100
AcDbEntity
  8
Exterior View
370
           0
  6
Continuous
 62
           7
 48
0.20000000298
100
AcDbLine
 10
52.12912418903
 20
20.910436626753
 30
0.0
 11
52.12912418903
 21
21.131196905273
 31
0.0
  0
LINE
  5
22D
100
AcDbEntity
  8
Exterior View
370
           0
  6
Continuous
 62
           7
 48
0.20000000298
100
AcDbLine
 10
52.25412418903
 20
21.144007404296
 30
0.0
 11
52.25412418903
 21
17.431087409608
 31
0.0
1001
TCAD
1000
TCW_CUSTOM_DATA
1002
{
1000
#$AUX@_ToolInfo Properties
1070
           8
1000
Insert^JLine^JSingle@Line Single
1002
}
  0
ARC
  5
22E
100
AcDbEntity
  8
Exterior View
370
           0
  6
Continuous
 62
           7
 48
0.20000000298
100
AcDbCircle
 10
52.346781166266
 20
19.441599591548
 30
0.0
 40
3.112026405255
100
AcDbArc
 50
179.669339417422
 51
190.128611590659
  0
ELLIPSE
  5
22F
100
AcDbEntity
  8
Exterior View
370
           0
  6
Continuous
 62
           7
 48
0.20000000298
100
AcDbEllipse
 10
51.795995015136
 20
19.434922910394
 30
0.0
 11
0.0000000000000002
 21
-2.9618699306166376
 31
0.0
210
0.0
220
0.0
230
1.0
 40
0.906960226744
 41
4.7041047874338142
 42
5.3217929155240169
1001
TCAD
1000
TCW_CUSTOM_DATA
1002
{
1000
#$AUX@_ToolInfo Properties
1070
           8
1000
Insert^JArc^JTriplePoint132@Arc TriplePoint132
1002
}
  0
ARC
  5
230
100
AcDbEntity
  8
Exterior View
370
           0
  6
Continuous
 62
           7
 48
0.20000000298
100
AcDbCircle
 10
51.805623920224
 20
19.358677525654
 30
0.0
 40
2.572795933308
100
AcDbArc
 50
144.477141778021
 51
177.75280065592
  0
ARC
  5
231
100
AcDbEntity
  8
Exterior View
370
           0
  6
Continuous
 62
           7
 48
0.20000000298
100
AcDbCircle
 10
51.805623920224
 20
19.358677525654
 30
0.0
 40
2.572795933308
100
AcDbArc
 50
104.102702264423
 51
111.182140919772
  0
ARC
  5
232
100
AcDbEntity
  8
Exterior View
370
           0
  6
Continuous
 62
           7
 48
0.20000000298
100
AcDbCircle
 10
51.790086542207
 20
19.372843771173
 30
0.0
 40
2.681679080219
100
AcDbArc
 50
102.517513570842
 51
178.149081531323
1001
TCAD
1000
TCW_CUSTOM_DATA
1002
{
1000
#$AUX@_ToolInfo Properties
1070
           8
1000
Insert^JArc^JTriplePoint132@Arc TriplePoint132
1002
}
  0
ARC
  5
233
100
AcDbEntity
  8
Exterior View
370
           0
  6
Continuous
 62
           7
 48
0.20000000298
100
AcDbCircle
 10
51.37912418903
 20
21.131197052269
 30
0.000000130619
 40
0.75
100
AcDbArc
 50
-0.00001122964
 51
105.496898975429
  0
ARC
  5
234
100
AcDbEntity
  8
Exterior View
370
           0
  6
Continuous
 62
           7
 48
0.20000000298
100
AcDbCircle
 10
51.37912418903
 20
21.131197052269
 30
0.000000130619
 40
0.875093769329
100
AcDbArc
 50
-0.838773338657
 51
101.203701530417
  0
ARC
  5
235
100
AcDbEntity
  8
Exterior View
370
           0
  6
Continuous
 62
           7
 48
0.20000000298
100
AcDbCircle
 10
51.37912418903
 20
17.431087409608
 30
0.000000130619
 40
0.875
100
AcDbArc
 50
-103.098775829248
 51
0.0
  0
ARC
  5
236
100
AcDbEntity
  8
Exterior View
370
           0
  6
Continuous
 62
           7
 48
0.20000000298
100
AcDbCircle
 10
50.306656093685
 20
21.289072260081
 30
0.0
 40
0.25
100
AcDbArc
 50
-104.52068778809
 51
0.179970266459
  0
ARC
  5
237
100
AcDbEntity
  8
Exterior View
370
           0
  6
Continuous
 62
           7
 48
0.20000000298
100
AcDbCircle
 10
52.00412418903
 20
20.260917573915
 30
0.000000130619
 40
0.25
100
AcDbArc
 50
120.000000000001
 51
240.0
  0
ARC
  5
238
100
AcDbEntity
  8
Exterior View
370
           0
  6
Continuous
 62
           7
 48
0.20000000298
100
AcDbCircle
 10
51.62912418903
 20
19.611398521076
 30
0.0
 40
0.5
100
AcDbArc
 50
0.0
 51
60.0
  0
ARC
  5
239
100
AcDbEntity
  8
Exterior View
370
           0
  6
Continuous
 62
           7
 48
0.20000000298
100
AcDbCircle
 10
51.62912418903
 20
20.910436626753
 30
0.0
 40
0.5
100
AcDbArc
 50
-60.0
 51
0.0
  0
ARC
  5
23A
100
AcDbEntity
  8
Exterior View
370
           0
  6
Continuous
 62
           7
 48
0.20000000298
100
AcDbCircle
 10
51.056652393809
 20
21.291428061486
 30
0.0
 40
0.5
100
AcDbArc
 50
111.1821406124
 51
180.17997026646
  0
ARC
  5
23B
100
AcDbEntity
  8
Exterior View
370
           0
  6
Continuous
 62
           7
 48
0.20000000298
100
AcDbCircle
 10
50.118608926077
 20
20.563029380663
 30
0.0
 40
0.5
100
AcDbArc
 50
75.479312211911
 51
144.477141865969
  0
POINT
  5
23C
100
AcDbEntity
  8
Exterior View
  6
Continuous
 62
           7
100
AcDbPoint
 10
52.00412418903
 20
18.010917573915
 30
0.0
1001
TCAD
1000
TCW_CUSTOM_DATA
1002
{
1000
#$AUX@_ToolInfo Properties
1070
           8
1000
Insert^JPoint^JCross@Point Cross
1002
}
1000
TC25ExternalObject
1002
{
1000
TCW30POINT
1000

1070
           0
1071
        0
1040
1.0
1040
0.0
1000
Continuous
1000
Exterior View
1070
          21
1071
        1
1071
      242
1010
52.00412418903
1020
18.010917573915
1030
0.0
1070
           3
1071
-2147483645
1070
           1
1000
#$AUX@_ToolInfo Properties
1070
           8
1000
Insert^JPoint^JCross@Point Cross
1000
$POINTSIZE
1070
           5
1040
0.25
1000
$POINTTYPE
1070
          18
1070
           3
1000
ExplodeScale
1070
           5
1040
1.0
1002
}
  0
POINT
  5
23D
100
AcDbEntity
  8
Exterior View
  6
Continuous
 62
           7
100
AcDbPoint
 10
52.00412418903
 20
20.260917573915
 30
0.0
1001
TCAD
1000
TCW_CUSTOM_DATA
1002
{
1000
#$AUX@_ToolInfo Properties
1070
           8
1000
Insert^JPoint^JCross@Point Cross
1002
}
1000
TC25ExternalObject
1002
{
1000
TCW30POINT
1000

1070
           0
1071
        0
1040
1.0
1040
0.0
1000
Continuous
1000
Exterior View
1070
          21
1071
        1
1071
      242
1010
52.00412418903
1020
20.260917573915
1030
0.0
1070
           3
1071
-2147483645
1070
           1
1000
#$AUX@_ToolInfo Properties
1070
           8
1000
Insert^JPoint^JCross@Point Cross
1000
$POINTSIZE
1070
           5
1040
0.25
1000
$POINTTYPE
1070
          18
1070
           3
1000
ExplodeScale
1070
           5
1040
1.0
1002
}
  0
POINT
  5
23E
100
AcDbEntity
  8
Exterior View
  6
Continuous
 62
           7
100
AcDbPoint
 10
50.306656093685
 20
21.289072260081
 30
0.0
1001
TCAD
1000
TCW_CUSTOM_DATA
1002
{
1000
#$AUX@_ToolInfo Properties
1070
           8
1000
Insert^JPoint^JCross@Point Cross
1002
}
1000
TC25ExternalObject
1002
{
1000
TCW30POINT
1000

1070
           0
1071
        0
1040
1.0
1040
0.0
1000
Continuous
1000
Exterior View
1070
          21
1071
        1
1071
      242
1010
50.306656093685
1020
21.289072260081
1030
0.0
1070
           3
1071
-2147483645
1070
           1
1000
#$AUX@_ToolInfo Properties
1070
           8
1000
Insert^JPoint^JCross@Point Cross
1000
$POINTSIZE
1070
           5
1040
0.25
1000
$POINTTYPE
1070
          18
1070
           3
1000
ExplodeScale
1070
           5
1040
1.0
1002
}
  0
CIRCLE
  5
23F
100
AcDbEntity
  8
Exterior View
370
           0
  6
Continuous
 62
           7
 48
0.20000000298
100
AcDbCircle
 10
52.00412418903
 20
18.010917573915
 30
0.0
 40
0.109
1001
TCAD
1000
TCW_CUSTOM_DATA
1002
{
1000
#$AUX@_ToolInfo Properties
1070
           8
1000
Insert^JCircle^JCenterAndPoint@Circle CenterAndPoint
1002
}
  0
POINT
  5
240
100
AcDbEntity
  8
Exterior View
  6
Continuous
 62
           7
100
AcDbPoint
 10
50.255870926353
 20
17.331456721775
 30
0.0
1001
TCAD
1000
TCW_CUSTOM_DATA
1002
{
1000
#$AUX@_ToolInfo Properties
1070
           8
1000
Insert^JPoint^JCross@Point Cross
1002
}
1000
TC25ExternalObject
1002
{
1000
TCW30POINT
1000

1070
           0
1071
        0
1040
1.0
1040
0.0
1000
Continuous
1000
Exterior View
1070
          21
1071
        1
1071
      242
1010
50.255870926353
1020
17.331456721775
1030
0.0
1070
           3
1071
-2147483645
1070
           1
1000
#$AUX@_ToolInfo Properties
1070
           8
1000
Insert^JPoint^JCross@Point Cross
1000
$POINTSIZE
1070
           5
1040
0.25
1000
$POINTTYPE
1070
          18
1070
           3
1000
ExplodeScale
1070
           5
1040
1.0
1002
}
  0
CIRCLE
  5
241
100
AcDbEntity
  8
Exterior View
370
           0
  6
Continuous
 62
           7
 48
0.20000000298
100
AcDbCircle
 10
50.255870926353
 20
17.331456721775
 30
0.0
 40
0.109
1001
TCAD
1000
TCW_CUSTOM_DATA
1002
{
1000
#$AUX@_ToolInfo Properties
1070
           8
1000
Insert^JCircle^JCenterAndPoint@Circle CenterAndPoint
1002
}
  0
CIRCLE
  5
242
100
AcDbEntity
  8
Exterior View
370
           0
  6
Continuous
 62
           7
 48
0.20000000298
100
AcDbCircle
 10
52.00412418903
 20
20.260917573915
 30
0.0
 40
0.109
1001
TCAD
1000
TCW_CUSTOM_DATA
1002
{
1000
#$AUX@_ToolInfo Properties
1070
           8
1000
Insert^JCircle^JCenterAndPoint@Circle CenterAndPoint
1002
}
  0
CIRCLE
  5
243
100
AcDbEntity
  8
Exterior View
370
           0
  6
Continuous
 62
           7
 48
0.20000000298
100
AcDbCircle
 10
50.306656093685
 20
21.289072260081
 30
0.0
 40
0.109
1001
TCAD
1000
TCW_CUSTOM_DATA
1002
{
1000
#$AUX@_ToolInfo Properties
1070
           8
1000
Insert^JCircle^JCenterAndPoint@Circle CenterAndPoint
1002
}
  0
ARC
  5
244
100
AcDbEntity
  8
Exterior View
370
           0
  6
Continuous
 62
           7
 48
0.20000000298
100
AcDbCircle
 10
50.021565797036
 20
19.026217567602
 30
0.0
 40
0.75
100
AcDbArc
 50
-169.871388409341
 51
-66.681348489634
  0
ARC
  5
245
100
AcDbEntity
  8
Exterior View
370
           0
  6
Continuous
 62
           7
 48
0.20000000298
100
AcDbCircle
 10
51.37912418903
 20
19.611398521076
 30
0.0
 40
0.75
100
AcDbArc
 50
-66.681349343408
 51
0.0
  0
LINE
  5
246
100
AcDbEntity
  8
Exterior View
370
           0
  6
Continuous
 62
           7
 48
0.20000000298
100
AcDbLine
 10
51.676007526538
 20
18.922660338666
 30
0.0
 11
50.318449134544
 21
18.337479385191
 31
0.0
1001
TCAD
1000
TCW_CUSTOM_DATA
1002
{
1000
#$AUX@_ToolInfo Properties
1070
           8
1000
Insert^JLine^JLine2Arcs@Line Line2Arcs
1002
}
  0
POINT
  5
247
100
AcDbEntity
  8
Exterior View
  6
Continuous
 62
           7
100
AcDbPoint
 10
51.50412418903
 20
17.193697052269
 30
0.0
1001
TCAD
1000
TCW_CUSTOM_DATA
1002
{
1000
#$AUX@_ToolInfo Properties
1070
           8
1000
Insert^JPoint^JCross@Point Cross
1002
}
1000
TC25ExternalObject
1002
{
1000
TCW30POINT
1000

1070
           0
1071
        0
1040
1.0
1040
0.0
1000
Continuous
1000
Exterior View
1070
          21
1071
        1
1071
      242
1010
51.50412418903
1020
17.193697052269
1030
0.0
1070
           3
1071
-2147483645
1070
           1
1000
#$AUX@_ToolInfo Properties
1070
           8
1000
Insert^JPoint^JCross@Point Cross
1000
$POINTSIZE
1070
           5
1040
0.25
1000
$POINTTYPE
1070
          18
1070
           3
1000
ExplodeScale
1070
           5
1040
1.0
1002
}
  0
ARC
  5
248
100
AcDbEntity
  8
Exterior View
370
           0
  6
Continuous
 62
           7
 48
0.20000000298
100
AcDbCircle
 10
53.480133645173
 20
19.008558544567
 30
0.0
 40
2.512466152563
100
AcDbArc
 50
-76.86721362554
 51
-30.786410656632
1001
TCAD
1000
TCW_CUSTOM_DATA
1002
{
1000
#$AUX@_ToolInfo Properties
1070
           8
1000
Insert^JArc^JTriplePoint132@Arc TriplePoint132
1002
}
  0
LINE
  5
249
100
AcDbEntity
  8
Exterior View
370
           0
  6
Continuous
 62
           7
 48
0.20000000298
100
AcDbLine
 10
52.97768130297
 20
21.126976107128
 30
0.0
 11
52.97768130297
 21
17.41405611244
 31
0.0
1001
TCAD
1000
TCW_CUSTOM_DATA
1002
{
1000
#$AUX@_ToolInfo Properties
1070
           8
1000
Insert^JLine^JSingle@Line Single
1002
}
  0
ELLIPSE
  5
24A
100
AcDbEntity
  8
Exterior View
370
           0
  6
Continuous
 62
           7
 48
0.20000000298
100
AcDbEllipse
 10
53.435810476864
 20
19.417891613226
 30
0.0
 11
0.0000000000000002
 21
-2.9618699306166394
 31
0.0
210
0.0
220
0.0
230
1.0
 40
0.906960226744
 41
0.9613923916555703
 42
1.5790805197457747
1001
TCAD
1000
TCW_CUSTOM_DATA
1002
{
1000
#$AUX@_ToolInfo Properties
1070
           8
1000
Insert^JArc^JTriplePoint132@Arc TriplePoint132
1002
}
  0
ARC
  5
24B
100
AcDbEntity
  8
Exterior View
370
           0
  6
Continuous
 62
           7
 48
0.20000000298
100
AcDbCircle
 10
53.441718949793
 20
19.355812474005
 30
0.0
 40
2.681679080219
100
AcDbArc
 50
1.850918468677
 51
77.482486429158
1001
TCAD
1000
TCW_CUSTOM_DATA
1002
{
1000
#$AUX@_ToolInfo Properties
1070
           8
1000
Insert^JArc^JTriplePoint132@Arc TriplePoint132
1002
}
  0
ARC
  5
24C
100
AcDbEntity
  8
Exterior View
370
           0
  6
Continuous
 62
           7
 48
0.20000000298
100
AcDbCircle
 10
53.85268130297
 20
21.1141657551
 30
0.0
 40
0.875093769329
100
AcDbArc
 50
78.796298469583
 51
180.838773338657
  0
ARC
  5
24D
100
AcDbEntity
  8
Exterior View
370
           0
  6
Continuous
 62
           7
 48
0.20000000298
100
AcDbCircle
 10
53.85268130297
 20
17.41405611244
 30
0.0
 40
0.875
100
AcDbArc
 50
180.0
 51
283.098775829248
  0
POINT
  5
24E
100
AcDbEntity
  8
Exterior View
  6
Continuous
 62
           7
100
AcDbPoint
 10
53.22768130297
 20
17.993886276747
 30
0.0
1001
TCAD
1000
TCW_CUSTOM_DATA
1002
{
1000
#$AUX@_ToolInfo Properties
1070
           8
1000
Insert^JPoint^JCross@Point Cross
1002
}
1000
TC25ExternalObject
1002
{
1000
TCW30POINT
1000

1070
           0
1071
        0
1040
1.0
1040
0.0
1000
Continuous
1000
Exterior View
1070
          21
1071
        1
1071
      242
1010
53.22768130297
1020
17.993886276747
1030
0.0
1070
           3
1071
-2147483645
1070
           1
1000
#$AUX@_ToolInfo Properties
1070
           8
1000
Insert^JPoint^JCross@Point Cross
1000
$POINTSIZE
1070
           5
1040
0.25
1000
$POINTTYPE
1070
          18
1070
           3
1000
ExplodeScale
1070
           5
1040
1.0
1002
}
  0
POINT
  5
24F
100
AcDbEntity
  8
Exterior View
  6
Continuous
 62
           7
100
AcDbPoint
 10
53.22768130297
 20
20.243886276747
 30
0.0
1001
TCAD
1000
TCW_CUSTOM_DATA
1002
{
1000
#$AUX@_ToolInfo Properties
1070
           8
1000
Insert^JPoint^JCross@Point Cross
1002
}
1000
TC25ExternalObject
1002
{
1000
TCW30POINT
1000

1070
           0
1071
        0
1040
1.0
1040
0.0
1000
Continuous
1000
Exterior View
1070
          21
1071
        1
1071
      242
1010
53.22768130297
1020
20.243886276747
1030
0.0
1070
           3
1071
-2147483645
1070
           1
1000
#$AUX@_ToolInfo Properties
1070
           8
1000
Insert^JPoint^JCross@Point Cross
1000
$POINTSIZE
1070
           5
1040
0.25
1000
$POINTTYPE
1070
          18
1070
           3
1000
ExplodeScale
1070
           5
1040
1.0
1002
}
  0
POINT
  5
250
100
AcDbEntity
  8
Exterior View
  6
Continuous
 62
           7
100
AcDbPoint
 10
54.925149398315
 20
21.272040962913
 30
0.0
1001
TCAD
1000
TCW_CUSTOM_DATA
1002
{
1000
#$AUX@_ToolInfo Properties
1070
           8
1000
Insert^JPoint^JCross@Point Cross
1002
}
1000
TC25ExternalObject
1002
{
1000
TCW30POINT
1000

1070
           0
1071
        0
1040
1.0
1040
0.0
1000
Continuous
1000
Exterior View
1070
          21
1071
        1
1071
      242
1010
54.925149398315
1020
21.272040962913
1030
0.0
1070
           3
1071
-2147483645
1070
           1
1000
#$AUX@_ToolInfo Properties
1070
           8
1000
Insert^JPoint^JCross@Point Cross
1000
$POINTSIZE
1070
           5
1040
0.25
1000
$POINTTYPE
1070
          18
1070
           3
1000
ExplodeScale
1070
           5
1040
1.0
1002
}
  0
POINT
  5
251
100
AcDbEntity
  8
Exterior View
  6
Continuous
 62
           7
100
AcDbPoint
 10
54.975934565648
 20
17.314425424607
 30
0.0
1001
TCAD
1000
TCW_CUSTOM_DATA
1002
{
1000
#$AUX@_ToolInfo Properties
1070
           8
1000
Insert^JPoint^JCross@Point Cross
1002
}
1000
TC25ExternalObject
1002
{
1000
TCW30POINT
1000

1070
           0
1071
        0
1040
1.0
1040
0.0
1000
Continuous
1000
Exterior View
1070
          21
1071
        1
1071
      242
1010
54.975934565648
1020
17.314425424607
1030
0.0
1070
           3
1071
-2147483645
1070
           1
1000
#$AUX@_ToolInfo Properties
1070
           8
1000
Insert^JPoint^JCross@Point Cross
1000
$POINTSIZE
1070
           5
1040
0.25
1000
$POINTTYPE
1070
          18
1070
           3
1000
ExplodeScale
1070
           5
1040
1.0
1002
}
  0
ARC
  5
252
100
AcDbEntity
  8
Exterior View
370
           0
  6
Continuous
 62
           7
 48
0.20000000298
100
AcDbCircle
 10
55.563933427601
 20
8.086923531824
 30
0.0
 40
0.5
100
AcDbArc
 50
-179.365789942143
 51
-140.219834894805
  0
POINT
  5
253
100
AcDbEntity
  8
0
  6
Continuous
 62
           7
100
AcDbPoint
 10
95.681576950031
 20
10.937281749014
 30
0.0
1001
TCAD
1000
TCW_CUSTOM_DATA
1002
{
1000
#$AUX@_ToolInfo Properties
1070
           8
1000
Insert^JPoint^JCross@Point Cross
1002
}
1000
TC25ExternalObject
1002
{
1000
TCW30POINT
1000

1070
           0
1071
        0
1040
1.0
1040
0.0
1000
Continuous
1000
0
1070
          21
1071
        1
1071
      242
1010
95.681576950031
1020
10.937281749014
1030
0.0
1070
           3
1071
-2147483645
1070
           1
1000
#$AUX@_ToolInfo Properties
1070
           8
1000
Insert^JPoint^JCross@Point Cross
1000
$POINTSIZE
1070
           5
1040
0.25
1000
$POINTTYPE
1070
          18
1070
           3
1000
ExplodeScale
1070
           5
1040
1.0
1002
}
  0
POINT
  5
254
100
AcDbEntity
  8
0
  6
Continuous
 62
           7
100
AcDbPoint
 10
104.681576950031
 20
10.26021856159
 30
0.0
1001
TCAD
1000
TCW_CUSTOM_DATA
1002
{
1000
#$AUX@_ToolInfo Properties
1070
           8
1000
Insert^JPoint^JCross@Point Cross
1002
}
1000
TC25ExternalObject
1002
{
1000
TCW30POINT
1000

1070
           0
1071
        0
1040
1.0
1040
0.0
1000
Continuous
1000
0
1070
          21
1071
        1
1071
      242
1010
104.681576950031
1020
10.26021856159
1030
0.0
1070
           3
1071
-2147483645
1070
           1
1000
#$AUX@_ToolInfo Properties
1070
           8
1000
Insert^JPoint^JCross@Point Cross
1000
$POINTSIZE
1070
           5
1040
0.25
1000
$POINTTYPE
1070
          18
1070
           3
1000
ExplodeScale
1070
           5
1040
1.0
1002
}
  0
POINT
  5
255
100
AcDbEntity
  8
0
  6
Continuous
 62
           7
100
AcDbPoint
 10
98.431576944444
 20
14.569651018826
 30
0.0
1001
TCAD
1000
TCW_CUSTOM_DATA
1002
{
1000
#$AUX@_ToolInfo Properties
1070
           8
1000
Insert^JPoint^JCross@Point Cross
1002
}
1000
TC25ExternalObject
1002
{
1000
TCW30POINT
1000

1070
           0
1071
        0
1040
1.0
1040
0.0
1000
Continuous
1000
0
1070
          21
1071
        1
1071
      242
1010
98.431576944444
1020
14.569651018826
1030
0.0
1070
           3
1071
-2147483645
1070
           1
1000
#$AUX@_ToolInfo Properties
1070
           8
1000
Insert^JPoint^JCross@Point Cross
1000
$POINTSIZE
1070
           5
1040
0.25
1000
$POINTTYPE
1070
          18
1070
           3
1000
ExplodeScale
1070
           5
1040
1.0
1002
}
  0
POINT
  5
256
100
AcDbEntity
  8
0
  6
Continuous
 62
           7
100
AcDbPoint
 10
102.056576944444
 20
12.632151018826
 30
0.0
1001
TCAD
1000
TCW_CUSTOM_DATA
1002
{
1000
#$AUX@_ToolInfo Properties
1070
           8
1000
Insert^JPoint^JCross@Point Cross
1002
}
1000
TC25ExternalObject
1002
{
1000
TCW30POINT
1000

1070
           0
1071
        0
1040
1.0
1040
0.0
1000
Continuous
1000
0
1070
          21
1071
        1
1071
      242
1010
102.056576944444
1020
12.632151018826
1030
0.0
1070
           3
1071
-2147483645
1070
           1
1000
#$AUX@_ToolInfo Properties
1070
           8
1000
Insert^JPoint^JCross@Point Cross
1000
$POINTSIZE
1070
           5
1040
0.25
1000
$POINTTYPE
1070
          18
1070
           3
1000
ExplodeScale
1070
           5
1040
1.0
1002
}
  0
ELLIPSE
  5
257
100
AcDbEntity
  8
Exterior View
370
           0
  6
Continuous
 62
           7
100
AcDbEllipse
 10
9.956715358995
 20
22.682351381929
 30
0.0
 11
0.0000000000000001
 21
-1.6674319353494764
 31
0.0
210
0.0
220
0.0
230
1.0
 40
0.537537493399
 41
4.1851416002599278
 42
4.7373038682164292
1001
TCAD
1000
TCW_CUSTOM_DATA
1002
{
1000
#$AUX@_ToolInfo Properties
1070
           8
1000
Insert^JArc^JTriplePoint132@Arc TriplePoint132
1002
}
  0
CIRCLE
  5
258
100
AcDbEntity
  8
Hidden
370
           0
  6
HIDDEN
 62
           7
 48
0.20000000298
100
AcDbCircle
 10
2.605681959368
 20
1.608796114919
 30
0.0
 40
0.15625
1001
TCAD
1000
TCW_CUSTOM_DATA
1002
{
1000
#$AUX@_ToolInfo Properties
1070
           8
1000
Insert^JCircle^JCenterAndPoint@Circle CenterAndPoint
1002
}
  0
CIRCLE
  5
259
100
AcDbEntity
  8
Hidden
370
           0
  6
HIDDEN
 62
           7
 48
0.20000000298
100
AcDbCircle
 10
4.27235928003
 20
-0.404922495231
 30
0.0
 40
0.15625
1001
TCAD
1000
TCW_CUSTOM_DATA
1002
{
1000
#$AUX@_ToolInfo Properties
1070
           8
1000
Insert^JCircle^JCenterAndPoint@Circle CenterAndPoint
1002
}
  0
CIRCLE
  5
25A
100
AcDbEntity
  8
Hidden
370
           0
  6
HIDDEN
 62
           7
 48
0.20000000298
100
AcDbCircle
 10
56.866774784908
 20
2.324464870821
 30
0.0
 40
0.15625
1001
TCAD
1000
TCW_CUSTOM_DATA
1002
{
1000
#$AUX@_ToolInfo Properties
1070
           8
1000
Insert^JCircle^JCenterAndPoint@Circle CenterAndPoint
1002
}
  0
CIRCLE
  5
25B
100
AcDbEntity
  8
Hidden
370
           0
  6
HIDDEN
 62
           7
 48
0.20000000298
100
AcDbCircle
 10
58.533452105571
 20
0.310746260672
 30
0.0
 40
0.15625
1001
TCAD
1000
TCW_CUSTOM_DATA
1002
{
1000
#$AUX@_ToolInfo Properties
1070
           8
1000
Insert^JCircle^JCenterAndPoint@Circle CenterAndPoint
1002
}
  0
CIRCLE
  5
25C
100
AcDbEntity
  8
Hidden
370
           0
  6
HIDDEN
 62
           7
 48
0.20000000298
100
AcDbCircle
 10
57.202333510692
 20
0.846938752458
 30
0.0
 40
0.125
1001
TCAD
1000
TCW_CUSTOM_DATA
1002
{
1000
#$AUX@_ToolInfo Properties
1070
           8
1000
Insert^JCircle^JCenterAndPoint@Circle CenterAndPoint
1002
}
  0
LINE
  5
25D
100
AcDbEntity
  8
Exterior View
370
           0
  6
Continuous
 62
           7
100
AcDbLine
 10
8.730408176053
 20
24.891054567165
 30
0.0
 11
8.230408176076
 21
24.891054567165
 31
0.0
1001
TCAD
1000
TCW_CUSTOM_DATA
1002
{
1000
#$AUX@_ToolInfo Properties
1070
           8
1000
Insert^JLine^JPerpendicular@Line Perpendicular
1002
}
  0
LINE
  5
25E
100
AcDbEntity
  8
Exterior View
370
           0
  6
Continuous
 62
           7
100
AcDbLine
 10
8.730408176053
 20
24.655054567173
 30
0.0
 11
8.230408176076
 21
24.655054567173
 31
0.0
1001
TCAD
1000
TCW_CUSTOM_DATA
1002
{
1000
#$AUX@_ToolInfo Properties
1070
           8
1000
Insert^JLine^JPerpendicular@Line Perpendicular
1002
}
  0
LINE
  5
25F
100
AcDbEntity
  8
Exterior View
370
           0
  6
Continuous
 62
           7
100
AcDbLine
 10
8.230408176076
 20
24.891054567165
 30
0.0
 11
8.230408176076
 21
24.655054567173
 31
0.0
1001
TCAD
1000
TCW_CUSTOM_DATA
1002
{
1000
#$AUX@_ToolInfo Properties
1070
           8
1000
Insert^JLine^JSingle@Line Single
1002
}
  0
LINE
  5
260
100
AcDbEntity
  8
Exterior View
370
           0
  6
Continuous
 62
           7
100
AcDbLine
 10
9.667908176027
 20
25.223054567154
 30
0.0
 11
9.667908176027
 21
24.491804567179
 31
0.0
  0
LINE
  5
261
100
AcDbEntity
  8
Exterior View
370
           0
  6
Continuous
 62
           7
100
AcDbLine
 10
9.667908176027
 20
25.223054567154
 30
0.0
 11
9.292908176053
 21
25.223054567154
 31
0.0
1001
TCAD
1000
TCW_CUSTOM_DATA
1002
{
1000
#$AUX@_ToolInfo Properties
1070
           8
1000
Insert^JLine^JPerpendicular@Line Perpendicular
1002
}
  0
LINE
  5
262
100
AcDbEntity
  8
Exterior View
370
           0
  6
Continuous
 62
           7
100
AcDbLine
 10
9.667908176027
 20
24.491804567179
 30
0.0
 11
9.292908176052
 21
24.491804567179
 31
0.0
1001
TCAD
1000
TCW_CUSTOM_DATA
1002
{
1000
#$AUX@_ToolInfo Properties
1070
           8
1000
Insert^JLine^JPerpendicular@Line Perpendicular
1002
}
  0
LINE
  5
263
100
AcDbEntity
  8
Exterior View
370
           0
  6
Continuous
 62
           7
100
AcDbLine
 10
8.730408176053
 20
25.866120598252
 30
0.0
 11
8.230408176076
 21
25.866120598252
 31
0.0
1001
TCAD
1000
TCW_CUSTOM_DATA
1002
{
1000
#$AUX@_ToolInfo Properties
1070
           8
1000
Insert^JLine^JPerpendicular@Line Perpendicular
1002
}
  0
LINE
  5
264
100
AcDbEntity
  8
Exterior View
370
           0
  6
Continuous
 62
           7
100
AcDbLine
 10
8.730408176053
 20
25.63012059826
 30
0.0
 11
8.230408176076
 21
25.63012059826
 31
0.0
1001
TCAD
1000
TCW_CUSTOM_DATA
1002
{
1000
#$AUX@_ToolInfo Properties
1070
           8
1000
Insert^JLine^JPerpendicular@Line Perpendicular
1002
}
  0
LINE
  5
265
100
AcDbEntity
  8
Exterior View
370
           0
  6
Continuous
 62
           7
100
AcDbLine
 10
8.230408176076
 20
25.866120598252
 30
0.0
 11
8.230408176076
 21
25.63012059826
 31
0.0
1001
TCAD
1000
TCW_CUSTOM_DATA
1002
{
1000
#$AUX@_ToolInfo Properties
1070
           8
1000
Insert^JLine^JSingle@Line Single
1002
}
  0
LINE
  5
266
100
AcDbEntity
  8
Exterior View
370
           0
  6
Continuous
 62
           7
100
AcDbLine
 10
9.667908176027
 20
26.198120598241
 30
0.0
 11
9.667908176027
 21
25.466870598266
 31
0.0
  0
LINE
  5
267
100
AcDbEntity
  8
Exterior View
370
           0
  6
Continuous
 62
           7
100
AcDbLine
 10
9.667908176027
 20
26.198120598241
 30
0.0
 11
9.292908176053
 21
26.198120598241
 31
0.0
1001
TCAD
1000
TCW_CUSTOM_DATA
1002
{
1000
#$AUX@_ToolInfo Properties
1070
           8
1000
Insert^JLine^JPerpendicular@Line Perpendicular
1002
}
  0
LINE
  5
268
100
AcDbEntity
  8
Exterior View
370
           0
  6
Continuous
 62
           7
100
AcDbLine
 10
9.667908176027
 20
25.466870598266
 30
0.0
 11
9.292908176052
 21
25.466870598266
 31
0.0
1001
TCAD
1000
TCW_CUSTOM_DATA
1002
{
1000
#$AUX@_ToolInfo Properties
1070
           8
1000
Insert^JLine^JPerpendicular@Line Perpendicular
1002
}
  0
LINE
  5
269
100
AcDbEntity
  8
Exterior View
370
           0
  6
Continuous
 62
           7
100
AcDbLine
 10
8.730408176053
 20
26.841186629339
 30
0.0
 11
8.230408176076
 21
26.841186629339
 31
0.0
1001
TCAD
1000
TCW_CUSTOM_DATA
1002
{
1000
#$AUX@_ToolInfo Properties
1070
           8
1000
Insert^JLine^JPerpendicular@Line Perpendicular
1002
}
  0
LINE
  5
26A
100
AcDbEntity
  8
Exterior View
370
           0
  6
Continuous
 62
           7
100
AcDbLine
 10
8.730408176053
 20
26.605186629347
 30
0.0
 11
8.230408176076
 21
26.605186629347
 31
0.0
1001
TCAD
1000
TCW_CUSTOM_DATA
1002
{
1000
#$AUX@_ToolInfo Properties
1070
           8
1000
Insert^JLine^JPerpendicular@Line Perpendicular
1002
}
  0
LINE
  5
26B
100
AcDbEntity
  8
Exterior View
370
           0
  6
Continuous
 62
           7
100
AcDbLine
 10
8.230408176076
 20
26.841186629339
 30
0.0
 11
8.230408176076
 21
26.605186629347
 31
0.0
1001
TCAD
1000
TCW_CUSTOM_DATA
1002
{
1000
#$AUX@_ToolInfo Properties
1070
           8
1000
Insert^JLine^JSingle@Line Single
1002
}
  0
LINE
  5
26C
100
AcDbEntity
  8
Exterior View
370
           0
  6
Continuous
 62
           7
100
AcDbLine
 10
9.667908176027
 20
27.173186629328
 30
0.0
 11
9.667908176027
 21
26.441936629352
 31
0.0
  0
LINE
  5
26D
100
AcDbEntity
  8
Exterior View
370
           0
  6
Continuous
 62
           7
100
AcDbLine
 10
9.667908176027
 20
27.173186629328
 30
0.0
 11
9.292908176053
 21
27.173186629328
 31
0.0
1001
TCAD
1000
TCW_CUSTOM_DATA
1002
{
1000
#$AUX@_ToolInfo Properties
1070
           8
1000
Insert^JLine^JPerpendicular@Line Perpendicular
1002
}
  0
LINE
  5
26E
100
AcDbEntity
  8
Exterior View
370
           0
  6
Continuous
 62
           7
100
AcDbLine
 10
9.667908176027
 20
26.441936629352
 30
0.0
 11
9.292908176052
 21
26.441936629352
 31
0.0
1001
TCAD
1000
TCW_CUSTOM_DATA
1002
{
1000
#$AUX@_ToolInfo Properties
1070
           8
1000
Insert^JLine^JPerpendicular@Line Perpendicular
1002
}
  0
LINE
  5
26F
100
AcDbEntity
  8
Exterior View
370
           0
  6
Continuous
 62
           7
100
AcDbLine
 10
8.730408176053
 20
27.816252660426
 30
0.0
 11
8.230408176076
 21
27.816252660426
 31
0.0
1001
TCAD
1000
TCW_CUSTOM_DATA
1002
{
1000
#$AUX@_ToolInfo Properties
1070
           8
1000
Insert^JLine^JPerpendicular@Line Perpendicular
1002
}
  0
LINE
  5
270
100
AcDbEntity
  8
Exterior View
370
           0
  6
Continuous
 62
           7
100
AcDbLine
 10
8.730408176053
 20
27.580252660434
 30
0.0
 11
8.230408176076
 21
27.580252660434
 31
0.0
1001
TCAD
1000
TCW_CUSTOM_DATA
1002
{
1000
#$AUX@_ToolInfo Properties
1070
           8
1000
Insert^JLine^JPerpendicular@Line Perpendicular
1002
}
  0
LINE
  5
271
100
AcDbEntity
  8
Exterior View
370
           0
  6
Continuous
 62
           7
100
AcDbLine
 10
8.230408176076
 20
27.816252660426
 30
0.0
 11
8.230408176076
 21
27.580252660434
 31
0.0
1001
TCAD
1000
TCW_CUSTOM_DATA
1002
{
1000
#$AUX@_ToolInfo Properties
1070
           8
1000
Insert^JLine^JSingle@Line Single
1002
}
  0
LINE
  5
272
100
AcDbEntity
  8
Exterior View
370
           0
  6
Continuous
 62
           7
100
AcDbLine
 10
9.667908176027
 20
28.148252660415
 30
0.0
 11
9.667908176027
 21
27.417002660439
 31
0.0
  0
LINE
  5
273
100
AcDbEntity
  8
Exterior View
370
           0
  6
Continuous
 62
           7
100
AcDbLine
 10
9.667908176027
 20
28.148252660415
 30
0.0
 11
9.292908176053
 21
28.148252660415
 31
0.0
1001
TCAD
1000
TCW_CUSTOM_DATA
1002
{
1000
#$AUX@_ToolInfo Properties
1070
           8
1000
Insert^JLine^JPerpendicular@Line Perpendicular
1002
}
  0
LINE
  5
274
100
AcDbEntity
  8
Exterior View
370
           0
  6
Continuous
 62
           7
100
AcDbLine
 10
9.667908176027
 20
27.417002660439
 30
0.0
 11
9.292908176052
 21
27.417002660439
 31
0.0
1001
TCAD
1000
TCW_CUSTOM_DATA
1002
{
1000
#$AUX@_ToolInfo Properties
1070
           8
1000
Insert^JLine^JPerpendicular@Line Perpendicular
1002
}
  0
LINE
  5
275
100
AcDbEntity
  8
Exterior View
370
           0
  6
Continuous
 62
           7
100
AcDbLine
 10
9.292908176053
 20
24.249999933831
 30
0.0
 11
9.292908176053
 21
29.496747884376
 31
0.0
1001
TCAD
1000
TCW_CUSTOM_DATA
1002
{
1000
#$AUX@_ToolInfo Properties
1070
           8
1000
Insert^JLine^JPerpendicular@Line Perpendicular
1002
}
  0
ELLIPSE
  5
276
100
AcDbEntity
  8
Exterior View
370
           0
  6
Continuous
 62
           7
100
AcDbEllipse
 10
7.292908176053
 20
24.25
 30
0.0
 11
0.0000000000000001
 21
-2.2202596609547887
 31
0.0
210
0.0
220
0.0
230
1.0
 40
0.900795539896
 41
1.2364083236856045
 42
1.5707963267948966
1001
TCAD
1000
TCW_CUSTOM_DATA
1002
{
1000
#$AUX@_ToolInfo Properties
1070
           8
1000
Insert^JArc^JTanToEntities@Arc TanToEntities
1002
}
  0
ELLIPSE
  5
277
100
AcDbEntity
  8
Exterior View
370
           0
  6
Continuous
 62
           7
100
AcDbEllipse
 10
6.85554482464
 20
24.575834165904
 30
0.0
 11
0.0000000000000001
 21
-2.2952608473760843
 31
0.0
210
0.0
220
0.0
230
1.0
 40
0.816854865201
 41
1.0484327131192344
 42
1.5649868603355404
1001
TCAD
1000
TCW_CUSTOM_DATA
1002
{
1000
#$AUX@_ToolInfo Properties
1070
           8
1000
Insert^JArc^JTriplePoint132@Arc TriplePoint132
1002
}
  0
LINE
  5
278
100
AcDbEntity
  8
Exterior View
370
           0
  6
Continuous
 62
           7
100
AcDbLine
 10
8.730408176053
 20
29.496747884376
 30
0.0
 11
9.292908176053
 21
29.496747884376
 31
0.0
1001
TCAD
1000
TCW_CUSTOM_DATA
1002
{
1000
#$AUX@_ToolInfo Properties
1070
           8
1000
Insert^JLine^JPerpendicular@Line Perpendicular
1002
}
  0
LINE
  5
279
100
AcDbEntity
  8
Exterior View
370
           0
  6
Continuous
 62
           7
100
AcDbLine
 10
8.480408176065
 20
24.655054567173
 30
0.0
 11
8.480408176065
 21
27.816252660426
 31
0.0
1001
TCAD
1000
TCW_CUSTOM_DATA
1002
{
1000
#$AUX@_ToolInfo Properties
1070
           8
1000
Insert^JLine^JPerpendicular@Line Perpendicular
1002
}
  0
ARC
  5
27A
100
AcDbEntity
  8
Exterior View
370
           0
  6
Continuous
 62
           7
100
AcDbCircle
 10
8.247272517734
 20
23.367301368901
 30
0.0
 40
0.063364341955
100
AcDbArc
 50
89.218407815628
 51
180.005334789924
1001
TCAD
1000
TCW_CUSTOM_DATA
1002
{
1000
#$AUX@_ToolInfo Properties
1070
           8
1000
Insert^JArc^JTanToEntities@Arc TanToEntities
1002
}
  0
LINE
  5
27B
100
AcDbEntity
  8
Exterior View
370
           0
  6
Continuous
 62
           7
100
AcDbLine
 10
8.185083931371
 20
23.379451247815
 30
0.0
 11
8.480408176065
 21
24.891054567165
 31
0.0
1001
TCAD
1000
TCW_CUSTOM_DATA
1002
{
1000
#$AUX@_ToolInfo Properties
1070
           8
1000
Insert^JLine^JTanFromArc@Line TanFromArc
1002
}
  0
LINE
  5
27C
100
AcDbEntity
  8
Exterior View
370
           0
  6
Continuous
 62
           7
100
AcDbLine
 10
8.184350896175
 20
23.37477862587
 30
0.0
 11
8.480408176065
 21
25.866120598252
 31
0.0
1001
TCAD
1000
TCW_CUSTOM_DATA
1002
{
1000
#$AUX@_ToolInfo Properties
1070
           8
1000
Insert^JLine^JTanFromArc@Line TanFromArc
1002
}
  0
LINE
  5
27D
100
AcDbEntity
  8
Exterior View
370
           0
  6
Continuous
 62
           7
100
AcDbLine
 10
8.184138076571
 20
23.372694157647
 30
0.0
 11
8.480408176065
 21
26.841186629339
 31
0.0
1001
TCAD
1000
TCW_CUSTOM_DATA
1002
{
1000
#$AUX@_ToolInfo Properties
1070
           8
1000
Insert^JLine^JTanFromArc@Line TanFromArc
1002
}
  0
LINE
  5
27E
100
AcDbEntity
  8
Exterior View
370
           0
  6
Continuous
 62
           7
100
AcDbLine
 10
8.184048559244
 20
23.371516923936
 30
0.0
 11
8.480408176065
 21
27.816252660426
 31
0.0
1001
TCAD
1000
TCW_CUSTOM_DATA
1002
{
1000
#$AUX@_ToolInfo Properties
1070
           8
1000
Insert^JLine^JTanFromArc@Line TanFromArc
1002
}
  0
TEXT
  5
27F
100
AcDbEntity
  8
0
  6
Continuous
 62
           7
100
AcDbText
 10
57.292957679521
 20
2.537652974608
 30
0.0
 40
0.15
  1
5/16 in
 11
57.292957679521
 21
2.687652974608
 31
0.0
100
AcDbText
 73
           3
1001
TCAD
1000
TCW_CUSTOM_DATA
1002
{
1000
#$AUX@_ToolInfo Properties
1070
           8
1000
Insert^JText@Text
1002
}
1000
TCW40_TEXT
1002
{
1000
Times New Roman
1070
           0
1070
         257
1002
}
  0
TEXT
  5
280
100
AcDbEntity
  8
0
  6
Continuous
 62
           7
100
AcDbText
 10
56.946176374407
 20
0.350152974608
 30
0.0
 40
0.15
  1
1/4  in
 11
56.946176374407
 21
0.500152974608
 31
0.0
100
AcDbText
 73
           3
1001
TCAD
1000
TCW_CUSTOM_DATA
1002
{
1000
#$AUX@_ToolInfo Properties
1070
           8
1000
Insert^JText@Text
1002
}
1000
TCW40_TEXT
1002
{
1000
Times New Roman
1070
           0
1070
         257
1002
}
  0
TEXT
  5
281
100
AcDbEntity
  8
0
  6
Continuous
 62
           7
100
AcDbText
 10
58.230457679521
 20
-0.399847025392
 30
0.0
 40
0.15
  1
5/16 in
 11
58.230457679521
 21
-0.249847025392
 31
0.0
100
AcDbText
 73
           3
1001
TCAD
1000
TCW_CUSTOM_DATA
1002
{
1000
#$AUX@_ToolInfo Properties
1070
           8
1000
Insert^JText@Text
1002
}
1000
TCW40_TEXT
1002
{
1000
Times New Roman
1070
           0
1070
         257
1002
}
  0
TEXT
  5
282
100
AcDbEntity
  8
0
  6
Continuous
 62
           7
100
AcDbText
 10
56.599395069292
 20
-2.274847025392
 30
0.0
 40
0.15
  1
3/8 in
 11
56.599395069292
 21
-2.124847025392
 31
0.0
100
AcDbText
 73
           3
1001
TCAD
1000
TCW_CUSTOM_DATA
1002
{
1000
#$AUX@_ToolInfo Properties
1070
           8
1000
Insert^JText@Text
1002
}
1000
TCW40_TEXT
1002
{
1000
Times New Roman
1070
           0
1070
         257
1002
}
  0
ELLIPSE
  5
283
100
AcDbEntity
  8
Exterior View
370
           0
  6
Continuous
 62
           7
100
AcDbEllipse
 10
71.929892359041
 20
2.575061611955
 30
0.000000182883
 11
0.0
 21
-2.031606562524086
 31
0.0
210
0.0
220
0.0
230
1.0
 40
0.828208699883
 41
-1.5431847163031445
 42
-1.2103213202747507
1001
TCAD
1000
TCW_CUSTOM_DATA
1002
{
1000
#$AUX@_ToolInfo Properties
1070
           8
1000
Insert^JArc^JTriplePoint132@Arc TriplePoint132
1002
}
  0
LINE
  5
284
100
AcDbEntity
  8
Exterior View
370
           0
  6
Continuous
 62
           7
100
AcDbLine
 10
70.355439494252
 20
1.858475883491
 30
0.0
 11
70.355439494252
 21
-0.897902142821
 31
0.0
  0
LINE
  5
285
100
AcDbEntity
  8
Exterior View
370
           0
  6
Continuous
 62
           7
100
AcDbLine
 10
69.66793949426
 20
-0.897902142821
 30
0.000000182883
 11
69.66793949426
 21
15.883597857179
 31
0.000000182883
1001
TCAD
1000
TCW_CUSTOM_DATA
1002
{
1000
#$AUX@_ToolInfo Properties
1070
           8
1000
Insert^JLine^JPerpendicular@Line Perpendicular
1002
}
  0
LINE
  5
286
100
AcDbEntity
  8
Exterior View
370
           0
  6
Continuous
 62
           7
100
AcDbLine
 10
70.24793949426
 20
15.09374984209
 30
0.000000182883
 11
70.24793949426
 21
2.518972810539
 31
0.000000182883
1001
TCAD
1000
TCW_CUSTOM_DATA
1002
{
1000
#$AUX@_ToolInfo Properties
1070
           8
1000
Insert^JLine^JPerpendicular@Line Perpendicular
1002
}
  0
ELLIPSE
  5
287
100
AcDbEntity
  8
Exterior View
370
           0
  6
Continuous
 62
           7
100
AcDbEllipse
 10
71.144246677202
 20
15.135289423788
 30
0.000000182883
 11
0.0
 21
-1.6674319353494784
 31
0.0
210
0.0
220
0.0
230
1.0
 40
0.537537493399
 41
4.1851416002599287
 42
4.7373038682164292
1001
TCAD
1000
TCW_CUSTOM_DATA
1002
{
1000
#$AUX@_ToolInfo Properties
1070
           8
1000
Insert^JArc^JTriplePoint132@Arc TriplePoint132
1002
}
  0
LINE
  5
288
100
AcDbEntity
  8
Exterior View
370
           0
  6
Continuous
 62
           7
100
AcDbLine
 10
69.91793949426
 20
17.015438041858
 30
0.0
 11
69.91793949426
 21
21.949685926235
 31
0.0
1001
TCAD
1000
TCW_CUSTOM_DATA
1002
{
1000
#$AUX@_ToolInfo Properties
1070
           8
1000
Insert^JLine^JSingle@Line Single
1002
}
  0
LINE
  5
289
100
AcDbEntity
  8
Exterior View
370
           0
  6
Continuous
 62
           7
100
AcDbLine
 10
70.48043949426
 20
16.70293797569
 30
0.0
 11
70.48043949426
 21
21.949685926235
 31
0.0
1001
TCAD
1000
TCW_CUSTOM_DATA
1002
{
1000
#$AUX@_ToolInfo Properties
1070
           8
1000
Insert^JLine^JPerpendicular@Line Perpendicular
1002
}
  0
ELLIPSE
  5
28A
100
AcDbEntity
  8
Exterior View
370
           0
  6
Continuous
 62
           7
100
AcDbEllipse
 10
68.48043949426
 20
16.702938041859
 30
0.0
 11
0.0000000000000001
 21
-2.2202596609547904
 31
0.0
210
0.0
220
0.0
230
1.0
 40
0.900795539896
 41
1.2364083236856074
 42
1.5707963267948966
1001
TCAD
1000
TCW_CUSTOM_DATA
1002
{
1000
#$AUX@_ToolInfo Properties
1070
           8
1000
Insert^JArc^JTanToEntities@Arc TanToEntities
1002
}
  0
ELLIPSE
  5
28B
100
AcDbEntity
  8
Exterior View
370
           0
  6
Continuous
 62
           7
100
AcDbEllipse
 10
68.043076142847
 20
17.028772207763
 30
0.0
 11
0.0000000000000001
 21
-2.2952608473760816
 31
0.0
210
0.0
220
0.0
230
1.0
 40
0.816854865201
 41
1.0484327131192366
 42
1.5649868603355419
1001
TCAD
1000
TCW_CUSTOM_DATA
1002
{
1000
#$AUX@_ToolInfo Properties
1070
           8
1000
Insert^JArc^JTriplePoint132@Arc TriplePoint132
1002
}
  0
LINE
  5
28C
100
AcDbEntity
  8
Exterior View
370
           0
  6
Continuous
 62
           7
100
AcDbLine
 10
69.91793949426
 20
21.949685926235
 30
0.0
 11
70.48043949426
 21
21.949685926235
 31
0.000000182883
1001
TCAD
1000
TCW_CUSTOM_DATA
1002
{
1000
#$AUX@_ToolInfo Properties
1070
           8
1000
Insert^JLine^JPerpendicular@Line Perpendicular
1002
}
  0
LINE
  5
28D
100
AcDbEntity
  8
Exterior View
370
           0
  6
Continuous
 62
           7
100
AcDbLine
 10
8.730408176053
 20
29.496747884376
 30
0.0
 11
8.730408176053
 21
24.5625
 31
0.0
1001
TCAD
1000
TCW_CUSTOM_DATA
1002
{
1000
#$AUX@_ToolInfo Properties
1070
           8
1000
Insert^JLine^JSingle@Line Single
1002
}
  0
POINT
  5
28E
100
AcDbEntity
  8
0
  6
Continuous
 62
           7
100
AcDbPoint
 10
49.76109282554
 20
6.210258945674
 30
0.0
1001
TCAD
1000
TCW_CUSTOM_DATA
1002
{
1000
#$AUX@_ToolInfo Properties
1070
           8
1000
Insert^JPoint^JCross@Point Cross
1002
}
1000
TC25ExternalObject
1002
{
1000
TCW30POINT
1000

1070
           0
1071
        0
1040
1.0
1040
0.0
1000
Continuous
1000
0
1070
          21
1071
        1
1071
      242
1010
49.76109282554
1020
6.210258945674
1030
0.0
1070
           3
1071
-2147483645
1070
           1
1000
#$AUX@_ToolInfo Properties
1070
           8
1000
Insert^JPoint^JCross@Point Cross
1000
$POINTSIZE
1070
           5
1040
0.25
1000
$POINTTYPE
1070
          18
1070
           3
1000
ExplodeScale
1070
           5
1040
1.0
1002
}
  0
POINT
  5
28F
100
AcDbEntity
  8
0
  6
Continuous
 62
           7
100
AcDbPoint
 10
58.76109282554
 20
5.533195758249
 30
0.0
1001
TCAD
1000
TCW_CUSTOM_DATA
1002
{
1000
#$AUX@_ToolInfo Properties
1070
           8
1000
Insert^JPoint^JCross@Point Cross
1002
}
1000
TC25ExternalObject
1002
{
1000
TCW30POINT
1000

1070
           0
1071
        0
1040
1.0
1040
0.0
1000
Continuous
1000
0
1070
          21
1071
        1
1071
      242
1010
58.76109282554
1020
5.533195758249
1030
0.0
1070
           3
1071
-2147483645
1070
           1
1000
#$AUX@_ToolInfo Properties
1070
           8
1000
Insert^JPoint^JCross@Point Cross
1000
$POINTSIZE
1070
           5
1040
0.25
1000
$POINTTYPE
1070
          18
1070
           3
1000
ExplodeScale
1070
           5
1040
1.0
1002
}
  0
POINT
  5
290
100
AcDbEntity
  8
0
  6
Continuous
 62
           7
100
AcDbPoint
 10
52.511092819953
 20
9.842628215485
 30
0.0
1001
TCAD
1000
TCW_CUSTOM_DATA
1002
{
1000
#$AUX@_ToolInfo Properties
1070
           8
1000
Insert^JPoint^JCross@Point Cross
1002
}
1000
TC25ExternalObject
1002
{
1000
TCW30POINT
1000

1070
           0
1071
        0
1040
1.0
1040
0.0
1000
Continuous
1000
0
1070
          21
1071
        1
1071
      242
1010
52.511092819953
1020
9.842628215485
1030
0.0
1070
           3
1071
-2147483645
1070
           1
1000
#$AUX@_ToolInfo Properties
1070
           8
1000
Insert^JPoint^JCross@Point Cross
1000
$POINTSIZE
1070
           5
1040
0.25
1000
$POINTTYPE
1070
          18
1070
           3
1000
ExplodeScale
1070
           5
1040
1.0
1002
}
  0
POINT
  5
291
100
AcDbEntity
  8
0
  6
Continuous
 62
           7
100
AcDbPoint
 10
56.136092819953
 20
7.905128215485
 30
0.0
1001
TCAD
1000
TCW_CUSTOM_DATA
1002
{
1000
#$AUX@_ToolInfo Properties
1070
           8
1000
Insert^JPoint^JCross@Point Cross
1002
}
1000
TC25ExternalObject
1002
{
1000
TCW30POINT
1000

1070
           0
1071
        0
1040
1.0
1040
0.0
1000
Continuous
1000
0
1070
          21
1071
        1
1071
      242
1010
56.136092819953
1020
7.905128215485
1030
0.0
1070
           3
1071
-2147483645
1070
           1
1000
#$AUX@_ToolInfo Properties
1070
           8
1000
Insert^JPoint^JCross@Point Cross
1000
$POINTSIZE
1070
           5
1040
0.25
1000
$POINTTYPE
1070
          18
1070
           3
1000
ExplodeScale
1070
           5
1040
1.0
1002
}
  0
LINE
  5
292
100
AcDbEntity
  8
Exterior View
370
           0
  6
Continuous
 62
           7
100
AcDbLine
 10
54.26114139724
 20
-4.35135384439
 30
0.000000182875
 11
54.260969451015
 21
13.586157537154
 31
0.000000182875
1001
TCAD
1000
TCW_CUSTOM_DATA
1002
{
1000
#$AUX@_ToolInfo Properties
1070
           8
1000
Insert^JLine^JSingle@Line Single
1002
}
  0
LINE
  5
293
100
AcDbEntity
  8
Exterior View
370
           0
  6
Continuous
 62
           7
100
AcDbLine
 10
69.66793949426
 20
-0.89790214286
 30
0.000000182883
 11
70.355439494272
 21
-0.89790214286
 31
0.000000182883
1001
TCAD
1000
TCW_CUSTOM_DATA
1002
{
1000
#$AUX@_ToolInfo Properties
1070
           8
1000
Insert^JLine^JPerpendicular@Line Perpendicular
1002
}
  0
ELLIPSE
  5
294
100
AcDbEntity
  8
Exterior View
370
           0
  6
Continuous
 62
           7
100
AcDbEllipse
 10
-1.961142922312
 20
23.426780362335
 30
0.0
 11
1.3361490120620203
 21
0.0
 31
0.0
210
0.0
220
0.0
230
1.0
 40
0.96390371392
 41
0.003019169429117
 42
1.0074469054694613
  0
ELLIPSE
  5
295
100
AcDbEntity
  8
Exterior View
370
           0
  6
Continuous
 62
           7
100
AcDbEllipse
 10
2.93754956718
 20
23.236538457304
 30
0.0
 11
0.0000000000000002
 21
-2.5051562655208701
 31
0.0
210
0.0
220
0.0
230
1.0
 40
0.925900122753
 41
4.0408061092512071
 42
4.6348189028718423
1001
TCAD
1000
TCW_CUSTOM_DATA
1002
{
1000
#$AUX@_ToolInfo Properties
1070
           8
1000
Insert^JArc^JTriplePoint132@Arc TriplePoint132
1002
}
  0
ELLIPSE
  5
296
100
AcDbEntity
  8
Exterior View
370
           0
  6
Continuous
 62
           7
100
AcDbEllipse
 10
1.516809141989
 20
23.228536018823
 30
0.0
 11
0.0456719813004802
 21
6.2682982283194857
 31
0.0
210
0.0
220
0.0
230
1.0
 40
0.530965856137
 41
0.0103895970195105
 42
0.4603689810378349
  0
ELLIPSE
  5
297
100
AcDbEntity
  8
Exterior View
370
           0
  6
Continuous
 62
           7
100
AcDbEllipse
 10
1.527751620759
 20
29.345574573934
 30
0.0
 11
0.0009279952685988
 21
0.1511746921120314
 31
0.0
210
0.0
220
0.0
230
1.0
 40
0.57087333326
 41
-2.3341971805657278
 42
0.009032397898479
1001
TCAD
1000
TCW_CUSTOM_DATA
1002
{
1000
#$AUX@_ToolInfo Properties
1070
           8
1000
Insert^JArc^JTanToEntities@Arc TanToEntities
1002
}
  0
LINE
  5
298
100
AcDbEntity
  8
Exterior View
370
           0
  6
Continuous
 62
           7
100
AcDbLine
 10
-1.247611254177
 20
24.515678774742
 30
0.0
 11
0.079054519475
 21
28.855006994347
 31
0.0
  0
ELLIPSE
  5
299
100
AcDbEntity
  8
Exterior View
370
           0
  6
Continuous
 62
           7
100
AcDbEllipse
 10
3.138271488553
 20
26.064953056682
 30
0.0
 11
0.0157798992274276
 21
4.5734660366816096
 31
0.0
210
0.0
220
0.0
230
1.0
 40
0.473182429447
 41
0.8048735290093002
 42
1.5575773697927691
  0
ELLIPSE
  5
29A
100
AcDbEntity
  8
Exterior View
370
           0
  6
Continuous
 62
           7
100
AcDbEllipse
 10
4.928118586907
 20
26.03394252323
 30
0.0
 11
0.0913492840931937
 21
-4.6873036375163997
 31
0.0
210
0.0
220
0.0
230
1.0
 40
0.843318455151
 41
4.674850356256167
 42
4.9633469384802549
  0
LINE
  5
29B
100
AcDbEntity
  8
Hidden
370
           0
  6
HIDDEN
 62
           7
 48
0.20000000298
100
AcDbLine
 10
-0.753363436796
 20
25.295707187785
 30
0.0
 11
-0.988020328727
 21
25.335964498563
 31
0.0
  0
LINE
  5
29C
100
AcDbEntity
  8
Exterior View
370
           0
  6
Continuous
 62
           7
100
AcDbLine
 10
-0.988020328727
 20
25.335964498563
 30
0.0
 11
-1.20704006756
 21
25.373539127717
 31
0.0
  0
ARC
  5
29D
100
AcDbEntity
  8
Exterior View
370
           0
  6
Continuous
 62
           7
100
AcDbCircle
 10
-1.215444090411
 20
25.257919159831
 30
0.0
 40
0.573459181242
100
AcDbArc
 50
118.35511190025
 51
207.109736266834
1001
TCAD
1000
TCW_CUSTOM_DATA
1002
{
1000
#$AUX@_ToolInfo Properties
1070
           8
1000
Insert^JCircle^JCenterAndPoint@Circle CenterAndPoint
1002
}
  0
LINE
  5
29E
100
AcDbEntity
  8
Exterior View
370
           0
  6
Continuous
 62
           7
100
AcDbLine
 10
-1.183439097457
 20
25.698234033186
 30
0.0
 11
-1.487799873196
 21
25.762575240874
 31
0.0
1001
TCAD
1000
TCW_CUSTOM_DATA
1002
{
1000
#$AUX@_ToolInfo Properties
1070
           8
1000
Insert^JLine^JSingle@Line Single
1002
}
  0
LINE
  5
29F
100
AcDbEntity
  8
Exterior View
370
           0
  6
Continuous
 62
           7
100
AcDbLine
 10
-1.215309857727
 20
25.259765891912
 30
0.0
 11
-1.183439097457
 21
25.698234033186
 31
0.0
1001
TCAD
1000
TCW_CUSTOM_DATA
1002
{
1000
#$AUX@_ToolInfo Properties
1070
           8
1000
Insert^JLine^JSingle@Line Single
1002
}
  0
LINE
  5
2A0
100
AcDbEntity
  8
Exterior View
370
           0
  6
Continuous
 62
           7
100
AcDbLine
 10
-1.433960247788
 20
24.878371000495
 30
0.0
 11
-1.725900397224
 21
24.996596004741
 31
0.0
1001
TCAD
1000
TCW_CUSTOM_DATA
1002
{
1000
#$AUX@_ToolInfo Properties
1070
           8
1000
Insert^JLine^JSingle@Line Single
1002
}
  0
LINE
  5
2A1
100
AcDbEntity
  8
Exterior View
370
           0
  6
Continuous
 62
           7
100
AcDbLine
 10
-1.215309857727
 20
25.259765891912
 30
0.0
 11
-1.433960247788
 21
24.878371000495
 31
0.0
1001
TCAD
1000
TCW_CUSTOM_DATA
1002
{
1000
#$AUX@_ToolInfo Properties
1070
           8
1000
Insert^JLine^JSingle@Line Single
1002
}
  0
LINE
  5
2A2
100
AcDbEntity
  8
Hidden
370
           0
  6
HIDDEN
 62
           7
 48
0.20000000298
100
AcDbLine
 10
-0.856343247758
 20
24.972195873784
 30
0.0
 11
-1.065355418665
 21
25.067042655414
 31
0.0
  0
LINE
  5
2A3
100
AcDbEntity
  8
Exterior View
370
           0
  6
Continuous
 62
           7
100
AcDbLine
 10
-1.065355418665
 20
25.067042655414
 30
0.0
 11
-1.272029769602
 21
25.160828567243
 31
0.0
  0
POINT
  5
2A4
100
AcDbEntity
  8
Exterior View
  6
Continuous
 62
           7
100
AcDbPoint
 10
-0.59347795124
 20
24.731331615335
 30
0.000000235132
1001
TCAD
1000
TCW_CUSTOM_DATA
1002
{
1000
#$AUX@_ToolInfo Properties
1070
           8
1000
Insert^JPoint^JCross@Point Cross
1002
}
1000
TC25ExternalObject
1002
{
1000
TCW30POINT
1000

1070
           0
1071
        0
1040
1.0
1040
0.0
1000
Continuous
1000
Exterior View
1070
          21
1071
        1
1071
      242
1010
-0.59347795124
1020
24.731331615335
1030
0.000000235132
1070
           3
1071
-2147483645
1070
           1
1000
#$AUX@_ToolInfo Properties
1070
           8
1000
Insert^JPoint^JCross@Point Cross
1000
$POINTSIZE
1070
           5
1040
0.25
1000
$POINTTYPE
1070
          18
1070
           3
1000
ExplodeScale
1070
           5
1040
1.0
1002
}
  0
LINE
  5
2A5
100
AcDbEntity
  8
Hidden
370
           0
  6
HIDDEN
 62
           7
 48
0.20000000298
100
AcDbLine
 10
-0.753363436796
 20
25.295707187785
 30
0.000000235132
 11
-0.134500458016
 21
25.106554275821
 31
0.000000235132
1001
TCAD
1000
TCW_CUSTOM_DATA
1002
{
1000
#$AUX@_ToolInfo Properties
1070
           8
1000
Insert^JLine^JSingle@Line Single
1002
}
  0
LINE
  5
2A6
100
AcDbEntity
  8
Hidden
370
           0
  6
HIDDEN
 62
           7
 48
0.20000000298
100
AcDbLine
 10
-0.90290944063
 20
24.825908071318
 30
0.000000235132
 11
-0.753363436796
 21
25.295707187785
 31
0.000000235132
1001
TCAD
1000
TCW_CUSTOM_DATA
1002
{
1000
#$AUX@_ToolInfo Properties
1070
           8
1000
Insert^JLine^JSingle@Line Single
1002
}
  0
ELLIPSE
  5
2A7
100
AcDbEntity
  8
Hidden
370
           0
  6
HIDDEN
 62
           7
 48
0.20000000298
100
AcDbEllipse
 10
-0.59347795124
 20
24.731331615335
 30
0.0
 11
0.3181738115201322
 21
-0.0599352232125825
 31
0.0
210
0.0
220
0.0
230
1.0
 40
0.951057859716
 41
3.0255214887360351
 42
6.1671140065696717
  0
LINE
  5
2A8
100
AcDbEntity
  8
Hidden
370
           0
  6
HIDDEN
 62
           7
 48
0.20000000298
100
AcDbLine
 10
-0.134500458016
 20
25.106554275821
 30
0.000000235132
 11
-0.284046474538
 21
24.636755119492
 31
0.000000235132
1001
TCAD
1000
TCW_CUSTOM_DATA
1002
{
1000
#$AUX@_ToolInfo Properties
1070
           8
1000
Insert^JLine^JPerpendicular@Line Perpendicular
1002
}
  0
ELLIPSE
  5
2A9
100
AcDbEntity
  8
Hidden
370
           0
  6
HIDDEN
 62
           7
 48
0.20000000298
100
AcDbEllipse
 10
-0.390196764554
 20
24.349015307628
 30
0.000000232623
 11
0.0510968682557801
 21
-0.009625249136068
 31
0.0
210
0.0
220
0.0
230
1.0
 40
0.951057859715
 41
4.4217848903361654
 42
10.704970197515751
1001
TCAD
1000
TCW_CUSTOM_DATA
1002
{
1000
#$AUX@_ToolInfo Properties
1070
           8
1000
Insert^JCircle^JCenterAndPoint@Circle CenterAndPoint
1002
}
  0
ARC
  5
2AA
100
AcDbEntity
  8
Hidden
370
           0
  6
HIDDEN
 62
           7
 48
0.20000000298
100
AcDbCircle
 10
-0.390196764554
 20
24.349015307628
 30
0.000000232623
 40
0.1
100
AcDbArc
 50
-137.488896340832
 51
14.299822374669
  0
LINE
  5
2AB
100
AcDbEntity
  8
Hidden
370
           0
  6
HIDDEN
 62
           7
 48
0.20000000298
100
AcDbLine
 10
-0.46486035386
 20
24.282492015226
 30
0.000000232623
 11
-0.589924160798
 21
24.422859582451
 31
0.000000232623
1001
TCAD
1000
TCW_CUSTOM_DATA
1002
{
1000
#$AUX@_ToolInfo Properties
1070
           8
1000
Insert^JLine^JTanFromArc@Line TanFromArc
1002
}
  0
LINE
  5
2AC
100
AcDbEntity
  8
Hidden
370
           0
  6
HIDDEN
 62
           7
 48
0.20000000298
100
AcDbLine
 10
-0.293295106415
 20
24.373714875437
 30
0.000000232623
 11
-0.335830235943
 21
24.540589235837
 31
0.000000232623
1001
TCAD
1000
TCW_CUSTOM_DATA
1002
{
1000
#$AUX@_ToolInfo Properties
1070
           8
1000
Insert^JLine^JTanFromArc@Line TanFromArc
1002
}
  0
POINT
  5
2AD
100
AcDbEntity
  8
0
  6
Continuous
 62
           7
100
AcDbPoint
 10
0.009538689751
 20
26.703710174509
 30
0.0
1001
TCAD
1000
TCW_CUSTOM_DATA
1002
{
1000
#$AUX@_ToolInfo Properties
1070
           8
1000
Insert^JPoint^JCross@Point Cross
1002
}
1000
TC25ExternalObject
1002
{
1000
TCW30POINT
1000

1070
           0
1071
        0
1040
1.0
1040
0.0
1000
Continuous
1000
0
1070
          21
1071
        1
1071
      242
1010
0.009538689751
1020
26.703710174509
1030
0.0
1070
           3
1071
-2147483645
1070
           1
1000
#$AUX@_ToolInfo Properties
1070
           8
1000
Insert^JPoint^JCross@Point Cross
1000
$POINTSIZE
1070
           5
1040
0.25
1000
$POINTTYPE
1070
          18
1070
           3
1000
ExplodeScale
1070
           5
1040
1.0
1002
}
  0
LINE
  5
2AE
100
AcDbEntity
  8
Hidden
370
           0
  6
HIDDEN
 62
           7
 48
0.20000000298
100
AcDbLine
 10
-0.451855116301
 20
26.281896467372
 30
0.0
 11
-0.686512008232
 21
26.32215377815
 31
0.0
  0
LINE
  5
2AF
100
AcDbEntity
  8
Exterior View
370
           0
  6
Continuous
 62
           7
100
AcDbLine
 10
-0.686512008232
 20
26.32215377815
 30
0.0
 11
-0.905531747064
 21
26.359728407304
 31
0.0
  0
ARC
  5
2B0
100
AcDbEntity
  8
Exterior View
370
           0
  6
Continuous
 62
           7
100
AcDbCircle
 10
-0.913935769916
 20
26.244108439418
 30
0.0
 40
0.573459181242
100
AcDbArc
 50
118.35511190025
 51
207.109736266835
1001
TCAD
1000
TCW_CUSTOM_DATA
1002
{
1000
#$AUX@_ToolInfo Properties
1070
           8
1000
Insert^JCircle^JCenterAndPoint@Circle CenterAndPoint
1002
}
  0
LINE
  5
2B1
100
AcDbEntity
  8
Exterior View
370
           0
  6
Continuous
 62
           7
100
AcDbLine
 10
-0.881930776961
 20
26.684423312773
 30
0.0
 11
-1.186291552701
 21
26.748764520461
 31
0.0
1001
TCAD
1000
TCW_CUSTOM_DATA
1002
{
1000
#$AUX@_ToolInfo Properties
1070
           8
1000
Insert^JLine^JSingle@Line Single
1002
}
  0
LINE
  5
2B2
100
AcDbEntity
  8
Exterior View
370
           0
  6
Continuous
 62
           7
100
AcDbLine
 10
-0.913801537232
 20
26.245955171499
 30
0.0
 11
-0.881930776961
 21
26.684423312773
 31
0.0
1001
TCAD
1000
TCW_CUSTOM_DATA
1002
{
1000
#$AUX@_ToolInfo Properties
1070
           8
1000
Insert^JLine^JSingle@Line Single
1002
}
  0
LINE
  5
2B3
100
AcDbEntity
  8
Exterior View
370
           0
  6
Continuous
 62
           7
100
AcDbLine
 10
-1.132451927292
 20
25.864560280082
 30
0.0
 11
-1.424392076729
 21
25.982785284328
 31
0.0
1001
TCAD
1000
TCW_CUSTOM_DATA
1002
{
1000
#$AUX@_ToolInfo Properties
1070
           8
1000
Insert^JLine^JSingle@Line Single
1002
}
  0
LINE
  5
2B4
100
AcDbEntity
  8
Exterior View
370
           0
  6
Continuous
 62
           7
100
AcDbLine
 10
-0.913801537232
 20
26.245955171499
 30
0.0
 11
-1.132451927292
 21
25.864560280082
 31
0.0
1001
TCAD
1000
TCW_CUSTOM_DATA
1002
{
1000
#$AUX@_ToolInfo Properties
1070
           8
1000
Insert^JLine^JSingle@Line Single
1002
}
  0
LINE
  5
2B5
100
AcDbEntity
  8
Hidden
370
           0
  6
HIDDEN
 62
           7
 48
0.20000000298
100
AcDbLine
 10
-0.554834927263
 20
25.958385153371
 30
0.0
 11
-0.763847098169
 21
26.053231935001
 31
0.0
  0
LINE
  5
2B6
100
AcDbEntity
  8
Exterior View
370
           0
  6
Continuous
 62
           7
100
AcDbLine
 10
-0.763847098169
 20
26.053231935001
 30
0.0
 11
-0.970521449106
 21
26.14701784683
 31
0.0
  0
POINT
  5
2B7
100
AcDbEntity
  8
Exterior View
  6
Continuous
 62
           7
100
AcDbPoint
 10
-0.291969630745
 20
25.717520894922
 30
0.000000235132
1001
TCAD
1000
TCW_CUSTOM_DATA
1002
{
1000
#$AUX@_ToolInfo Properties
1070
           8
1000
Insert^JPoint^JCross@Point Cross
1002
}
1000
TC25ExternalObject
1002
{
1000
TCW30POINT
1000

1070
           0
1071
        0
1040
1.0
1040
0.0
1000
Continuous
1000
Exterior View
1070
          21
1071
        1
1071
      242
1010
-0.291969630745
1020
25.717520894922
1030
0.000000235132
1070
           3
1071
-2147483645
1070
           1
1000
#$AUX@_ToolInfo Properties
1070
           8
1000
Insert^JPoint^JCross@Point Cross
1000
$POINTSIZE
1070
           5
1040
0.25
1000
$POINTTYPE
1070
          18
1070
           3
1000
ExplodeScale
1070
           5
1040
1.0
1002
}
  0
LINE
  5
2B8
100
AcDbEntity
  8
Hidden
370
           0
  6
HIDDEN
 62
           7
 48
0.20000000298
100
AcDbLine
 10
-0.451855116301
 20
26.281896467372
 30
0.000000235132
 11
0.167007862479
 21
26.092743555407
 31
0.000000235132
1001
TCAD
1000
TCW_CUSTOM_DATA
1002
{
1000
#$AUX@_ToolInfo Properties
1070
           8
1000
Insert^JLine^JSingle@Line Single
1002
}
  0
LINE
  5
2B9
100
AcDbEntity
  8
Hidden
370
           0
  6
HIDDEN
 62
           7
 48
0.20000000298
100
AcDbLine
 10
-0.601401120135
 20
25.812097350905
 30
0.000000235132
 11
-0.451855116301
 21
26.281896467372
 31
0.000000235132
1001
TCAD
1000
TCW_CUSTOM_DATA
1002
{
1000
#$AUX@_ToolInfo Properties
1070
           8
1000
Insert^JLine^JSingle@Line Single
1002
}
  0
ELLIPSE
  5
2BA
100
AcDbEntity
  8
Hidden
370
           0
  6
HIDDEN
 62
           7
 48
0.20000000298
100
AcDbEllipse
 10
-0.291969630745
 20
25.717520894922
 30
0.0
 11
0.3181738115201035
 21
-0.0599352232127046
 31
0.0
210
0.0
220
0.0
230
1.0
 40
0.951057859716
 41
3.0255214887363922
 42
6.1671140065701167
  0
LINE
  5
2BB
100
AcDbEntity
  8
Hidden
370
           0
  6
HIDDEN
 62
           7
 48
0.20000000298
100
AcDbLine
 10
0.167007862479
 20
26.092743555407
 30
0.000000235132
 11
0.017461845957
 21
25.622944399079
 31
0.000000235132
1001
TCAD
1000
TCW_CUSTOM_DATA
1002
{
1000
#$AUX@_ToolInfo Properties
1070
           8
1000
Insert^JLine^JPerpendicular@Line Perpendicular
1002
}
  0
ELLIPSE
  5
2BC
100
AcDbEntity
  8
Hidden
370
           0
  6
HIDDEN
 62
           7
 48
0.20000000298
100
AcDbEllipse
 10
-0.088688444058
 20
25.335204587214
 30
0.000000232623
 11
0.0510968682558208
 21
-0.0096252491359472
 31
0.0
210
0.0
220
0.0
230
1.0
 40
0.951057859714
 41
4.4217848903336492
 42
10.704970197513235
1001
TCAD
1000
TCW_CUSTOM_DATA
1002
{
1000
#$AUX@_ToolInfo Properties
1070
           8
1000
Insert^JCircle^JCenterAndPoint@Circle CenterAndPoint
1002
}
  0
ARC
  5
2BD
100
AcDbEntity
  8
Hidden
370
           0
  6
HIDDEN
 62
           7
 48
0.20000000298
100
AcDbCircle
 10
-0.088688444058
 20
25.335204587214
 30
0.000000232623
 40
0.1
100
AcDbArc
 50
-137.488896340837
 51
14.299822374666
  0
LINE
  5
2BE
100
AcDbEntity
  8
Hidden
370
           0
  6
HIDDEN
 62
           7
 48
0.20000000298
100
AcDbLine
 10
-0.163352033364
 20
25.268681294813
 30
0.000000232623
 11
-0.288415840303
 21
25.409048862038
 31
0.000000232623
1001
TCAD
1000
TCW_CUSTOM_DATA
1002
{
1000
#$AUX@_ToolInfo Properties
1070
           8
1000
Insert^JLine^JTanFromArc@Line TanFromArc
1002
}
  0
LINE
  5
2BF
100
AcDbEntity
  8
Hidden
370
           0
  6
HIDDEN
 62
           7
 48
0.20000000298
100
AcDbLine
 10
0.00821321408
 20
25.359904155024
 30
0.000000232623
 11
-0.034321915448
 21
25.526778515424
 31
0.000000232623
1001
TCAD
1000
TCW_CUSTOM_DATA
1002
{
1000
#$AUX@_ToolInfo Properties
1070
           8
1000
Insert^JLine^JTanFromArc@Line TanFromArc
1002
}
  0
LINE
  5
2C0
100
AcDbEntity
  8
Hidden
370
           0
  6
HIDDEN
 62
           7
 48
0.20000000298
100
AcDbLine
 10
-0.150346795806
 20
27.268085746959
 30
0.0
 11
-0.385003687736
 21
27.308343057737
 31
0.0
  0
LINE
  5
2C1
100
AcDbEntity
  8
Exterior View
370
           0
  6
Continuous
 62
           7
100
AcDbLine
 10
-0.385003687736
 20
27.308343057737
 30
0.0
 11
-0.604023426569
 21
27.345917686891
 31
0.0
  0
ARC
  5
2C2
100
AcDbEntity
  8
Exterior View
370
           0
  6
Continuous
 62
           7
100
AcDbCircle
 10
-0.612427449421
 20
27.230297719004
 30
0.0
 40
0.573459181242
100
AcDbArc
 50
118.35511190025
 51
207.109736266834
1001
TCAD
1000
TCW_CUSTOM_DATA
1002
{
1000
#$AUX@_ToolInfo Properties
1070
           8
1000
Insert^JCircle^JCenterAndPoint@Circle CenterAndPoint
1002
}
  0
LINE
  5
2C3
100
AcDbEntity
  8
Exterior View
370
           0
  6
Continuous
 62
           7
100
AcDbLine
 10
-0.580422456466
 20
27.67061259236
 30
0.0
 11
-0.884783232206
 21
27.734953800048
 31
0.0
1001
TCAD
1000
TCW_CUSTOM_DATA
1002
{
1000
#$AUX@_ToolInfo Properties
1070
           8
1000
Insert^JLine^JSingle@Line Single
1002
}
  0
LINE
  5
2C4
100
AcDbEntity
  8
Exterior View
370
           0
  6
Continuous
 62
           7
100
AcDbLine
 10
-0.612293216737
 20
27.232144451086
 30
0.0
 11
-0.580422456466
 21
27.67061259236
 31
0.0
1001
TCAD
1000
TCW_CUSTOM_DATA
1002
{
1000
#$AUX@_ToolInfo Properties
1070
           8
1000
Insert^JLine^JSingle@Line Single
1002
}
  0
LINE
  5
2C5
100
AcDbEntity
  8
Exterior View
370
           0
  6
Continuous
 62
           7
100
AcDbLine
 10
-0.830943606797
 20
26.850749559669
 30
0.0
 11
-1.122883756233
 21
26.968974563915
 31
0.0
1001
TCAD
1000
TCW_CUSTOM_DATA
1002
{
1000
#$AUX@_ToolInfo Properties
1070
           8
1000
Insert^JLine^JSingle@Line Single
1002
}
  0
LINE
  5
2C6
100
AcDbEntity
  8
Exterior View
370
           0
  6
Continuous
 62
           7
100
AcDbLine
 10
-0.612293216737
 20
27.232144451086
 30
0.0
 11
-0.830943606797
 21
26.850749559669
 31
0.0
1001
TCAD
1000
TCW_CUSTOM_DATA
1002
{
1000
#$AUX@_ToolInfo Properties
1070
           8
1000
Insert^JLine^JSingle@Line Single
1002
}
  0
LINE
  5
2C7
100
AcDbEntity
  8
Hidden
370
           0
  6
HIDDEN
 62
           7
 48
0.20000000298
100
AcDbLine
 10
-0.253326606768
 20
26.944574432958
 30
0.0
 11
-0.462338777674
 21
27.039421214588
 31
0.0
  0
LINE
  5
2C8
100
AcDbEntity
  8
Exterior View
370
           0
  6
Continuous
 62
           7
100
AcDbLine
 10
-0.462338777674
 20
27.039421214588
 30
0.0
 11
-0.669013128611
 21
27.133207126417
 31
0.0
  0
LINE
  5
2C9
100
AcDbEntity
  8
Hidden
370
           0
  6
HIDDEN
 62
           7
 48
0.20000000298
100
AcDbLine
 10
-0.150346795806
 20
27.268085746959
 30
0.000000235132
 11
0.468516182975
 21
27.078932834994
 31
0.000000235132
1001
TCAD
1000
TCW_CUSTOM_DATA
1002
{
1000
#$AUX@_ToolInfo Properties
1070
           8
1000
Insert^JLine^JSingle@Line Single
1002
}
  0
LINE
  5
2CA
100
AcDbEntity
  8
Hidden
370
           0
  6
HIDDEN
 62
           7
 48
0.20000000298
100
AcDbLine
 10
-0.29989279964
 20
26.798286630492
 30
0.000000235132
 11
-0.150346795806
 21
27.268085746959
 31
0.000000235132
1001
TCAD
1000
TCW_CUSTOM_DATA
1002
{
1000
#$AUX@_ToolInfo Properties
1070
           8
1000
Insert^JLine^JSingle@Line Single
1002
}
  0
ELLIPSE
  5
2CB
100
AcDbEntity
  8
Hidden
370
           0
  6
HIDDEN
 62
           7
 48
0.20000000298
100
AcDbEllipse
 10
0.009538689751
 20
26.703710174509
 30
0.0
 11
0.3181738115201035
 21
-0.0599352232127046
 31
0.0
210
0.0
220
0.0
230
1.0
 40
0.951057859716
 41
3.0255214887363922
 42
6.1671140065701167
  0
LINE
  5
2CC
100
AcDbEntity
  8
Hidden
370
           0
  6
HIDDEN
 62
           7
 48
0.20000000298
100
AcDbLine
 10
0.468516182975
 20
27.078932834994
 30
0.000000235132
 11
0.318970166452
 21
26.609133678666
 31
0.000000235132
1001
TCAD
1000
TCW_CUSTOM_DATA
1002
{
1000
#$AUX@_ToolInfo Properties
1070
           8
1000
Insert^JLine^JPerpendicular@Line Perpendicular
1002
}
  0
ELLIPSE
  5
2CD
100
AcDbEntity
  8
Hidden
370
           0
  6
HIDDEN
 62
           7
 48
0.20000000298
100
AcDbEllipse
 10
0.212819876437
 20
26.321393866801
 30
0.000000232623
 11
0.0510968682558255
 21
-0.0096252491359152
 31
0.0
210
0.0
220
0.0
230
1.0
 40
0.951057859715
 41
4.4217848903331323
 42
10.704970197512718
1001
TCAD
1000
TCW_CUSTOM_DATA
1002
{
1000
#$AUX@_ToolInfo Properties
1070
           8
1000
Insert^JCircle^JCenterAndPoint@Circle CenterAndPoint
1002
}
  0
ARC
  5
2CE
100
AcDbEntity
  8
Hidden
370
           0
  6
HIDDEN
 62
           7
 48
0.20000000298
100
AcDbCircle
 10
0.212819876437
 20
26.321393866801
 30
0.000000232623
 40
0.1
100
AcDbArc
 50
-137.488896340834
 51
14.299822374664
  0
LINE
  5
2CF
100
AcDbEntity
  8
Hidden
370
           0
  6
HIDDEN
 62
           7
 48
0.20000000298
100
AcDbLine
 10
0.138156287131
 20
26.254870574399
 30
0.000000232623
 11
0.013092480193
 21
26.395238141625
 31
0.000000232623
1001
TCAD
1000
TCW_CUSTOM_DATA
1002
{
1000
#$AUX@_ToolInfo Properties
1070
           8
1000
Insert^JLine^JTanFromArc@Line TanFromArc
1002
}
  0
LINE
  5
2D0
100
AcDbEntity
  8
Hidden
370
           0
  6
HIDDEN
 62
           7
 48
0.20000000298
100
AcDbLine
 10
0.309721534575
 20
26.346093434611
 30
0.000000232623
 11
0.267186405048
 21
26.512967795011
 31
0.000000232623
1001
TCAD
1000
TCW_CUSTOM_DATA
1002
{
1000
#$AUX@_ToolInfo Properties
1070
           8
1000
Insert^JLine^JTanFromArc@Line TanFromArc
1002
}
  0
LINE
  5
2D1
100
AcDbEntity
  8
Hidden
370
           0
  6
HIDDEN
 62
           7
 48
0.20000000298
100
AcDbLine
 10
0.15116152469
 20
28.254275026546
 30
0.0
 11
-0.083495367241
 21
28.294532337324
 31
0.0
  0
LINE
  5
2D2
100
AcDbEntity
  8
Exterior View
370
           0
  6
Continuous
 62
           7
100
AcDbLine
 10
-0.083495367241
 20
28.294532337324
 30
0.0
 11
-0.302515106074
 21
28.332106966478
 31
0.0
  0
ARC
  5
2D3
100
AcDbEntity
  8
Exterior View
370
           0
  6
Continuous
 62
           7
100
AcDbCircle
 10
-0.310919128925
 20
28.216486998591
 30
0.0
 40
0.573459181242
100
AcDbArc
 50
118.355111900251
 51
207.109736266834
1001
TCAD
1000
TCW_CUSTOM_DATA
1002
{
1000
#$AUX@_ToolInfo Properties
1070
           8
1000
Insert^JCircle^JCenterAndPoint@Circle CenterAndPoint
1002
}
  0
LINE
  5
2D4
100
AcDbEntity
  8
Exterior View
370
           0
  6
Continuous
 62
           7
100
AcDbLine
 10
-0.278914135971
 20
28.656801871947
 30
0.0
 11
-0.58327491171
 21
28.721143079635
 31
0.0
1001
TCAD
1000
TCW_CUSTOM_DATA
1002
{
1000
#$AUX@_ToolInfo Properties
1070
           8
1000
Insert^JLine^JSingle@Line Single
1002
}
  0
LINE
  5
2D5
100
AcDbEntity
  8
Exterior View
370
           0
  6
Continuous
 62
           7
100
AcDbLine
 10
-0.310784896241
 20
28.218333730673
 30
0.0
 11
-0.278914135971
 21
28.656801871947
 31
0.0
1001
TCAD
1000
TCW_CUSTOM_DATA
1002
{
1000
#$AUX@_ToolInfo Properties
1070
           8
1000
Insert^JLine^JSingle@Line Single
1002
}
  0
LINE
  5
2D6
100
AcDbEntity
  8
Exterior View
370
           0
  6
Continuous
 62
           7
100
AcDbLine
 10
-0.529435286302
 20
27.836938839256
 30
0.0
 11
-0.821375435738
 21
27.955163843502
 31
0.0
1001
TCAD
1000
TCW_CUSTOM_DATA
1002
{
1000
#$AUX@_ToolInfo Properties
1070
           8
1000
Insert^JLine^JSingle@Line Single
1002
}
  0
LINE
  5
2D7
100
AcDbEntity
  8
Exterior View
370
           0
  6
Continuous
 62
           7
100
AcDbLine
 10
-0.310784896241
 20
28.218333730673
 30
0.0
 11
-0.529435286302
 21
27.836938839256
 31
0.0
1001
TCAD
1000
TCW_CUSTOM_DATA
1002
{
1000
#$AUX@_ToolInfo Properties
1070
           8
1000
Insert^JLine^JSingle@Line Single
1002
}
  0
LINE
  5
2D8
100
AcDbEntity
  8
Hidden
370
           0
  6
HIDDEN
 62
           7
 48
0.20000000298
100
AcDbLine
 10
0.048181713728
 20
27.930763712545
 30
0.0
 11
-0.160830457179
 21
28.025610494175
 31
0.0
  0
LINE
  5
2D9
100
AcDbEntity
  8
Exterior View
370
           0
  6
Continuous
 62
           7
100
AcDbLine
 10
-0.160830457179
 20
28.025610494175
 30
0.0
 11
-0.367504808116
 21
28.119396406003
 31
0.0
  0
POINT
  5
2DA
100
AcDbEntity
  8
Exterior View
  6
Continuous
 62
           7
100
AcDbPoint
 10
0.311047010246
 20
27.689899454096
 30
0.000000235132
1001
TCAD
1000
TCW_CUSTOM_DATA
1002
{
1000
#$AUX@_ToolInfo Properties
1070
           8
1000
Insert^JPoint^JCross@Point Cross
1002
}
1000
TC25ExternalObject
1002
{
1000
TCW30POINT
1000

1070
           0
1071
        0
1040
1.0
1040
0.0
1000
Continuous
1000
Exterior View
1070
          21
1071
        1
1071
      242
1010
0.311047010246
1020
27.689899454096
1030
0.000000235132
1070
           3
1071
-2147483645
1070
           1
1000
#$AUX@_ToolInfo Properties
1070
           8
1000
Insert^JPoint^JCross@Point Cross
1000
$POINTSIZE
1070
           5
1040
0.25
1000
$POINTTYPE
1070
          18
1070
           3
1000
ExplodeScale
1070
           5
1040
1.0
1002
}
  0
LINE
  5
2DB
100
AcDbEntity
  8
Hidden
370
           0
  6
HIDDEN
 62
           7
 48
0.20000000298
100
AcDbLine
 10
0.15116152469
 20
28.254275026546
 30
0.000000235132
 11
0.77002450347
 21
28.065122114581
 31
0.000000235132
1001
TCAD
1000
TCW_CUSTOM_DATA
1002
{
1000
#$AUX@_ToolInfo Properties
1070
           8
1000
Insert^JLine^JSingle@Line Single
1002
}
  0
LINE
  5
2DC
100
AcDbEntity
  8
Hidden
370
           0
  6
HIDDEN
 62
           7
 48
0.20000000298
100
AcDbLine
 10
0.001615520856
 20
27.784475910078
 30
0.000000235132
 11
0.15116152469
 21
28.254275026546
 31
0.000000235132
1001
TCAD
1000
TCW_CUSTOM_DATA
1002
{
1000
#$AUX@_ToolInfo Properties
1070
           8
1000
Insert^JLine^JSingle@Line Single
1002
}
  0
ELLIPSE
  5
2DD
100
AcDbEntity
  8
Hidden
370
           0
  6
HIDDEN
 62
           7
 48
0.20000000298
100
AcDbEllipse
 10
0.311047010246
 20
27.689899454096
 30
0.0
 11
0.3181738115200786
 21
-0.0599352232128508
 31
0.0
210
0.0
220
0.0
230
1.0
 40
0.951057859716
 41
3.0255214887369171
 42
6.1671140065705528
  0
LINE
  5
2DE
100
AcDbEntity
  8
Hidden
370
           0
  6
HIDDEN
 62
           7
 48
0.20000000298
100
AcDbLine
 10
0.77002450347
 20
28.065122114581
 30
0.000000235132
 11
0.620478486948
 21
27.595322958253
 31
0.000000235132
1001
TCAD
1000
TCW_CUSTOM_DATA
1002
{
1000
#$AUX@_ToolInfo Properties
1070
           8
1000
Insert^JLine^JPerpendicular@Line Perpendicular
1002
}
  0
ELLIPSE
  5
2DF
100
AcDbEntity
  8
Hidden
370
           0
  6
HIDDEN
 62
           7
 48
0.20000000298
100
AcDbEllipse
 10
0.514328196932
 20
27.307583146388
 30
0.000000232623
 11
0.051096868255916
 21
-0.0096252491354996
 31
0.0
210
0.0
220
0.0
230
1.0
 40
0.951057859714
 41
4.4217848903251866
 42
10.704970197504773
1001
TCAD
1000
TCW_CUSTOM_DATA
1002
{
1000
#$AUX@_ToolInfo Properties
1070
           8
1000
Insert^JCircle^JCenterAndPoint@Circle CenterAndPoint
1002
}
  0
ARC
  5
2E0
100
AcDbEntity
  8
Hidden
370
           0
  6
HIDDEN
 62
           7
 48
0.20000000298
100
AcDbCircle
 10
0.514328196932
 20
27.307583146388
 30
0.000000232623
 40
0.1
100
AcDbArc
 50
-137.488896340836
 51
14.29982237465
  0
LINE
  5
2E1
100
AcDbEntity
  8
Hidden
370
           0
  6
HIDDEN
 62
           7
 48
0.20000000298
100
AcDbLine
 10
0.439664607626
 20
27.241059853986
 30
0.000000232623
 11
0.314600800688
 21
27.381427421211
 31
0.000000232623
1001
TCAD
1000
TCW_CUSTOM_DATA
1002
{
1000
#$AUX@_ToolInfo Properties
1070
           8
1000
Insert^JLine^JTanFromArc@Line TanFromArc
1002
}
  0
LINE
  5
2E2
100
AcDbEntity
  8
Hidden
370
           0
  6
HIDDEN
 62
           7
 48
0.20000000298
100
AcDbLine
 10
0.611229855071
 20
27.332282714198
 30
0.000000232623
 11
0.568694725543
 21
27.499157074598
 31
0.000000232623
1001
TCAD
1000
TCW_CUSTOM_DATA
1002
{
1000
#$AUX@_ToolInfo Properties
1070
           8
1000
Insert^JLine^JTanFromArc@Line TanFromArc
1002
}
  0
CIRCLE
  5
2E3
100
AcDbEntity
  8
Exterior View
370
           0
  6
Continuous
 62
           7
100
AcDbCircle
 10
-0.59347795124
 20
24.731331615335
 30
0.000000232673
 40
0.118
1001
TCAD
1000
TCW_CUSTOM_DATA
1002
{
1000
#$AUX@_ToolInfo Properties
1070
           8
1000
Insert^JCircle^JCenterAndPoint@Circle CenterAndPoint
1002
}
  0
CIRCLE
  5
2E4
100
AcDbEntity
  8
Exterior View
370
           0
  6
Continuous
 62
           7
100
AcDbCircle
 10
-0.291969630745
 20
25.717520894922
 30
0.000000232673
 40
0.118
1001
TCAD
1000
TCW_CUSTOM_DATA
1002
{
1000
#$AUX@_ToolInfo Properties
1070
           8
1000
Insert^JCircle^JCenterAndPoint@Circle CenterAndPoint
1002
}
  0
CIRCLE
  5
2E5
100
AcDbEntity
  8
Exterior View
370
           0
  6
Continuous
 62
           7
100
AcDbCircle
 10
0.009538689751
 20
26.703710174509
 30
0.000000232673
 40
0.118
1001
TCAD
1000
TCW_CUSTOM_DATA
1002
{
1000
#$AUX@_ToolInfo Properties
1070
           8
1000
Insert^JCircle^JCenterAndPoint@Circle CenterAndPoint
1002
}
  0
CIRCLE
  5
2E6
100
AcDbEntity
  8
Exterior View
370
           0
  6
Continuous
 62
           7
100
AcDbCircle
 10
0.311047010246
 20
27.689899454096
 30
0.000000232673
 40
0.118
1001
TCAD
1000
TCW_CUSTOM_DATA
1002
{
1000
#$AUX@_ToolInfo Properties
1070
           8
1000
Insert^JCircle^JCenterAndPoint@Circle CenterAndPoint
1002
}
  0
LINE
  5
2E7
100
AcDbEntity
  8
Exterior View
370
           0
  6
Continuous
 62
           7
100
AcDbLine
 10
-0.475498953394
 20
24.729105392703
 30
0.000000232673
 11
-0.500000000001
 21
23.430668802084
 31
0.000000232673
1001
TCAD
1000
TCW_CUSTOM_DATA
1002
{
1000
#$AUX@_ToolInfo Properties
1070
           8
1000
Insert^JLine^JTanFromArc@Line TanFromArc
1002
}
  0
LINE
  5
2E8
100
AcDbEntity
  8
Exterior View
370
           0
  6
Continuous
 62
           7
100
AcDbLine
 10
-0.173970178674
 20
25.717880493146
 30
0.000000232673
 11
-0.167000000001
 21
23.43066879329
 31
0.000000232673
1001
TCAD
1000
TCW_CUSTOM_DATA
1002
{
1000
#$AUX@_ToolInfo Properties
1070
           8
1000
Insert^JLine^JTanFromArc@Line TanFromArc
1002
}
  0
LINE
  5
2E9
100
AcDbEntity
  8
Exterior View
370
           0
  6
Continuous
 62
           7
100
AcDbLine
 10
0.127530118267
 20
26.705132425072
 30
0.000000232673
 11
0.166999999999
 21
23.430668802084
 31
0.000000232673
1001
TCAD
1000
TCW_CUSTOM_DATA
1002
{
1000
#$AUX@_ToolInfo Properties
1070
           8
1000
Insert^JLine^JTanFromArc@Line TanFromArc
1002
}
  0
LINE
  5
2EA
100
AcDbEntity
  8
Exterior View
370
           0
  6
Continuous
 62
           7
100
AcDbLine
 10
0.429030648095
 20
27.691864447729
 30
0.000000232673
 11
0.499999999999
 21
23.430668802084
 31
0.000000232673
1001
TCAD
1000
TCW_CUSTOM_DATA
1002
{
1000
#$AUX@_ToolInfo Properties
1070
           8
1000
Insert^JLine^JTanFromArc@Line TanFromArc
1002
}
  0
LINE
  5
2EB
100
AcDbEntity
  8
Exterior View
370
           0
  6
Continuous
 62
           7
100
AcDbLine
 10
65.912442172963
 20
15.883606843904
 30
0.0
 11
65.912442172963
 21
15.69609785714
 31
0.0
1001
TCAD
1000
TCW_CUSTOM_DATA
1002
{
1000
#$AUX@_ToolInfo Properties
1070
           8
1000
Insert^JLine^JPerpendicular@Line Perpendicular
1002
}
  0
LINE
  5
2EC
100
AcDbEntity
  8
Exterior View
370
           0
  6
Continuous
 62
           7
100
AcDbLine
 10
67.162442172963
 20
15.883606843904
 30
0.0
 11
67.162442172963
 21
15.69609785714
 31
0.0
1001
TCAD
1000
TCW_CUSTOM_DATA
1002
{
1000
#$AUX@_ToolInfo Properties
1070
           8
1000
Insert^JLine^JPerpendicular@Line Perpendicular
1002
}
  0
ARC
  5
2ED
100
AcDbEntity
  8
Exterior View
370
           0
  6
Continuous
 62
           7
 48
0.20000000298
100
AcDbCircle
 10
66.537442172964
 20
10.97709785714
 30
0.0
 40
11.875
100
AcDbArc
 50
-93.327838145246
 51
-86.67216183672
  0
ARC
  5
2EE
100
AcDbEntity
  8
Exterior View
370
           0
  6
Continuous
 62
           7
 48
0.20000000298
100
AcDbCircle
 10
65.85536546833
 20
-0.753088474245
 30
0.0
 40
0.125
100
AcDbArc
 50
179.365789942148
 51
266.672160894088
1001
TCAD
1000
TCW_CUSTOM_DATA
1002
{
1000
#$AUX@_ToolInfo Properties
1070
           8
1000
Insert^JArc^JTanToEntities@Arc TanToEntities
1002
}
  0
ARC
  5
2EF
100
AcDbEntity
  8
Exterior View
370
           0
  6
Continuous
 62
           7
 48
0.20000000298
100
AcDbCircle
 10
67.219518877598
 20
-0.753088474245
 30
0.0
 40
0.125
100
AcDbArc
 50
-86.672157246215
 51
0.634210057859
1001
TCAD
1000
TCW_CUSTOM_DATA
1002
{
1000
#$AUX@_ToolInfo Properties
1070
           8
1000
Insert^JArc^JTanToEntities@Arc TanToEntities
1002
}
  0
ELLIPSE
  5
2F0
100
AcDbEntity
  8
Exterior View
370
           0
  6
Continuous
 62
           7
100
AcDbEllipse
 10
64.576299250652
 20
15.879718404154
 30
0.0
 11
1.3361490120620203
 21
0.0
 31
0.0
210
0.0
220
0.0
230
1.0
 40
0.96390371392
 41
0.003019169429117
 42
1.0074469054694615
  0
ELLIPSE
  5
2F1
100
AcDbEntity
  8
Exterior View
370
           0
  6
Continuous
 62
           7
100
AcDbEllipse
 10
69.474991740144
 20
15.689476499124
 30
0.0
 11
0.0000000000000002
 21
-2.5051562655208715
 31
0.0
210
0.0
220
0.0
230
1.0
 40
0.925900122753
 41
4.0408061092512071
 42
4.6348189028718423
1001
TCAD
1000
TCW_CUSTOM_DATA
1002
{
1000
#$AUX@_ToolInfo Properties
1070
           8
1000
Insert^JArc^JTriplePoint132@Arc TriplePoint132
1002
}
  0
ELLIPSE
  5
2F2
100
AcDbEntity
  8
Exterior View
370
           0
  6
Continuous
 62
           7
100
AcDbEllipse
 10
68.054251314953
 20
15.681474060643
 30
0.0
 11
0.0456719813004802
 21
6.2682982283194875
 31
0.0
210
0.0
220
0.0
230
1.0
 40
0.530965856137
 41
0.0103895970195105
 42
0.4603689810378349
  0
ELLIPSE
  5
2F3
100
AcDbEntity
  8
Exterior View
370
           0
  6
Continuous
 62
           7
100
AcDbEllipse
 10
68.065193793724
 20
21.798512615753
 30
0.0
 11
0.0009279952685988
 21
0.1511746921120314
 31
0.0
210
0.0
220
0.0
230
1.0
 40
0.57087333326
 41
-2.3341971805657278
 42
0.009032397898479
1001
TCAD
1000
TCW_CUSTOM_DATA
1002
{
1000
#$AUX@_ToolInfo Properties
1070
           8
1000
Insert^JArc^JTanToEntities@Arc TanToEntities
1002
}
  0
LINE
  5
2F4
100
AcDbEntity
  8
Exterior View
370
           0
  6
Continuous
 62
           7
100
AcDbLine
 10
65.289830918787
 20
16.968616816562
 30
0.0
 11
66.61649669244
 21
21.307945036166
 31
0.0
  0
ELLIPSE
  5
2F5
100
AcDbEntity
  8
Exterior View
370
           0
  6
Continuous
 62
           7
100
AcDbEllipse
 10
69.675713661517
 20
18.517891098502
 30
0.0
 11
0.0157798992274276
 21
4.5734660366816104
 31
0.0
210
0.0
220
0.0
230
1.0
 40
0.473182429447
 41
0.8048735290093005
 42
1.5575773697927691
  0
ELLIPSE
  5
2F6
100
AcDbEntity
  8
Exterior View
370
           0
  6
Continuous
 62
           7
100
AcDbEllipse
 10
71.465560759872
 20
18.486880565049
 30
0.0
 11
0.0913492840931937
 21
-4.6873036375164014
 31
0.0
210
0.0
220
0.0
230
1.0
 40
0.843318455151
 41
4.674850356256167
 42
4.9633469384802549
  0
POINT
  5
2F7
100
AcDbEntity
  8
Exterior View
  6
Continuous
 62
           7
100
AcDbPoint
 10
65.943964221725
 20
17.184269657155
 30
0.000000235132
1001
TCAD
1000
TCW_CUSTOM_DATA
1002
{
1000
#$AUX@_ToolInfo Properties
1070
           8
1000
Insert^JPoint^JCross@Point Cross
1002
}
1000
TC25ExternalObject
1002
{
1000
TCW30POINT
1000

1070
           0
1071
        0
1040
1.0
1040
0.0
1000
Continuous
1000
Exterior View
1070
          21
1071
        1
1071
      242
1010
65.943964221725
1020
17.184269657155
1030
0.000000235132
1070
           3
1071
-2147483645
1070
           1
1000
#$AUX@_ToolInfo Properties
1070
           8
1000
Insert^JPoint^JCross@Point Cross
1000
$POINTSIZE
1070
           5
1040
0.25
1000
$POINTTYPE
1070
          18
1070
           3
1000
ExplodeScale
1070
           5
1040
1.0
1002
}
  0
POINT
  5
2F8
100
AcDbEntity
  8
0
  6
Continuous
 62
           7
100
AcDbPoint
 10
66.546980862715
 20
19.156648216329
 30
0.0
1001
TCAD
1000
TCW_CUSTOM_DATA
1002
{
1000
#$AUX@_ToolInfo Properties
1070
           8
1000
Insert^JPoint^JCross@Point Cross
1002
}
1000
TC25ExternalObject
1002
{
1000
TCW30POINT
1000

1070
           0
1071
        0
1040
1.0
1040
0.0
1000
Continuous
1000
0
1070
          21
1071
        1
1071
      242
1010
66.546980862715
1020
19.156648216329
1030
0.0
1070
           3
1071
-2147483645
1070
           1
1000
#$AUX@_ToolInfo Properties
1070
           8
1000
Insert^JPoint^JCross@Point Cross
1000
$POINTSIZE
1070
           5
1040
0.25
1000
$POINTTYPE
1070
          18
1070
           3
1000
ExplodeScale
1070
           5
1040
1.0
1002
}
  0
POINT
  5
2F9
100
AcDbEntity
  8
Exterior View
  6
Continuous
 62
           7
100
AcDbPoint
 10
66.24547254222
 20
18.170458936742
 30
0.000000235132
1001
TCAD
1000
TCW_CUSTOM_DATA
1002
{
1000
#$AUX@_ToolInfo Properties
1070
           8
1000
Insert^JPoint^JCross@Point Cross
1002
}
1000
TC25ExternalObject
1002
{
1000
TCW30POINT
1000

1070
           0
1071
        0
1040
1.0
1040
0.0
1000
Continuous
1000
Exterior View
1070
          21
1071
        1
1071
      242
1010
66.24547254222
1020
18.170458936742
1030
0.000000235132
1070
           3
1071
-2147483645
1070
           1
1000
#$AUX@_ToolInfo Properties
1070
           8
1000
Insert^JPoint^JCross@Point Cross
1000
$POINTSIZE
1070
           5
1040
0.25
1000
$POINTTYPE
1070
          18
1070
           3
1000
ExplodeScale
1070
           5
1040
1.0
1002
}
  0
POINT
  5
2FA
100
AcDbEntity
  8
Exterior View
  6
Continuous
 62
           7
100
AcDbPoint
 10
66.84848918321
 20
20.142837495916
 30
0.000000235132
1001
TCAD
1000
TCW_CUSTOM_DATA
1002
{
1000
#$AUX@_ToolInfo Properties
1070
           8
1000
Insert^JPoint^JCross@Point Cross
1002
}
1000
TC25ExternalObject
1002
{
1000
TCW30POINT
1000

1070
           0
1071
        0
1040
1.0
1040
0.0
1000
Continuous
1000
Exterior View
1070
          21
1071
        1
1071
      242
1010
66.84848918321
1020
20.142837495916
1030
0.000000235132
1070
           3
1071
-2147483645
1070
           1
1000
#$AUX@_ToolInfo Properties
1070
           8
1000
Insert^JPoint^JCross@Point Cross
1000
$POINTSIZE
1070
           5
1040
0.25
1000
$POINTTYPE
1070
          18
1070
           3
1000
ExplodeScale
1070
           5
1040
1.0
1002
}
  0
CIRCLE
  5
2FB
100
AcDbEntity
  8
Exterior View
370
           0
  6
Continuous
 62
           7
100
AcDbCircle
 10
65.943964221725
 20
17.184269657155
 30
0.000000232675
 40
0.203125
1001
TCAD
1000
TCW_CUSTOM_DATA
1002
{
1000
#$AUX@_ToolInfo Properties
1070
           8
1000
Insert^JCircle^JCenterAndPoint@Circle CenterAndPoint
1002
}
  0
CIRCLE
  5
2FC
100
AcDbEntity
  8
Exterior View
370
           0
  6
Continuous
 62
           7
100
AcDbCircle
 10
66.24547254222
 20
18.170458936742
 30
0.000000232675
 40
0.203125
1001
TCAD
1000
TCW_CUSTOM_DATA
1002
{
1000
#$AUX@_ToolInfo Properties
1070
           8
1000
Insert^JCircle^JCenterAndPoint@Circle CenterAndPoint
1002
}
  0
CIRCLE
  5
2FD
100
AcDbEntity
  8
Exterior View
370
           0
  6
Continuous
 62
           7
100
AcDbCircle
 10
66.546980862715
 20
19.156648216329
 30
0.000000232675
 40
0.203125
1001
TCAD
1000
TCW_CUSTOM_DATA
1002
{
1000
#$AUX@_ToolInfo Properties
1070
           8
1000
Insert^JCircle^JCenterAndPoint@Circle CenterAndPoint
1002
}
  0
CIRCLE
  5
2FE
100
AcDbEntity
  8
Exterior View
370
           0
  6
Continuous
 62
           7
100
AcDbCircle
 10
66.84848918321
 20
20.142837495916
 30
0.000000232675
 40
0.203125
1001
TCAD
1000
TCW_CUSTOM_DATA
1002
{
1000
#$AUX@_ToolInfo Properties
1070
           8
1000
Insert^JCircle^JCenterAndPoint@Circle CenterAndPoint
1002
}
  0
LINE
  5
2FF
100
AcDbEntity
  8
Exterior View
370
           0
  6
Continuous
 62
           7
 48
0.20000000298
100
AcDbLine
 10
65.730373125999
 20
-0.751704870792
 30
0.0
 11
65.912442172963
 21
15.696097857138
 31
0.0
1001
TCAD
1000
TCW_CUSTOM_DATA
1002
{
1000
#$AUX@_ToolInfo Properties
1070
           8
1000
Insert^JLine^JSingle@Line Single
1002
}
  0
LINE
  5
300
100
AcDbEntity
  8
Exterior View
370
           0
  6
Continuous
 62
           7
 48
0.20000000298
100
AcDbLine
 10
67.162442172963
 20
15.69609785714
 30
0.0
 11
67.34451121993
 21
-0.751704870792
 31
0.0
1001
TCAD
1000
TCW_CUSTOM_DATA
1002
{
1000
#$AUX@_ToolInfo Properties
1070
           8
1000
Insert^JLine^JSingle@Line Single
1002
}
  0
ARC
  5
301
100
AcDbEntity
  8
Exterior View
370
           0
  6
Continuous
 62
           7
 48
0.20000000298
100
AcDbCircle
 10
52.979815125714
 20
3.199660690425
 30
0.0
 40
0.46875
100
AcDbArc
 50
90.0
 51
256.15376287835
  0
LINE
  5
302
100
AcDbEntity
  8
Exterior View
370
           0
  6
Continuous
 62
           7
 48
0.20000000298
100
AcDbLine
 10
52.979815114538
 20
3.668410690425
 30
0.0
 11
55.542315125714
 21
3.668410690425
 31
0.0
  0
ARC
  5
303
100
AcDbEntity
  8
Exterior View
370
           0
  6
Continuous
 62
           7
 48
0.20000000298
100
AcDbCircle
 10
55.542315125714
 20
3.199660690425
 30
0.0
 40
0.46875
100
AcDbArc
 50
-76.153762707896
 51
90.0
  0
LINE
  5
304
100
AcDbEntity
  8
Exterior View
370
           0
  6
Continuous
 62
           7
 48
0.20000000298
100
AcDbLine
 10
55.654495006202
 20
2.744531876886
 30
0.0
 11
54.584948512693
 21
2.480910690425
 31
0.0
  0
LINE
  5
305
100
AcDbEntity
  8
Exterior View
370
           0
  6
Continuous
 62
           7
 48
0.20000000298
100
AcDbLine
 10
53.937181752429
 20
2.480910690425
 30
0.0
 11
54.584948512693
 21
2.480910690425
 31
0.0
  0
LINE
  5
306
100
AcDbEntity
  8
Exterior View
370
           0
  6
Continuous
 62
           7
 48
0.20000000298
100
AcDbLine
 10
52.867635246581
 20
2.744531876552
 30
0.0
 11
53.937181752429
 21
2.480910690425
 31
0.0
  0
LINE
  5
307
100
AcDbEntity
  8
Exterior View
370
           0
  6
Continuous
 62
           7
 48
0.20000000298
100
AcDbLine
 10
54.584948512693
 20
5.922820505732
 30
0.0
 11
53.937181752429
 21
5.922820505732
 31
0.0
  0
LINE
  5
308
100
AcDbEntity
  8
Exterior View
370
           0
  6
Continuous
 62
           7
 48
0.20000000298
100
AcDbLine
 10
52.867635246581
 20
6.186441691859
 30
0.0
 11
53.937181752429
 21
5.922820505732
 31
0.0
  0
ARC
  5
309
100
AcDbEntity
  8
Exterior View
370
           0
  6
Continuous
 62
           7
 48
0.20000000298
100
AcDbCircle
 10
52.979815125714
 20
6.641570505732
 30
0.0
 40
0.46875
100
AcDbArc
 50
90.0
 51
256.153762878352
  0
LINE
  5
30A
100
AcDbEntity
  8
Exterior View
370
           0
  6
Continuous
 62
           7
 48
0.20000000298
100
AcDbLine
 10
52.979815114538
 20
7.110320505732
 30
0.0
 11
55.542315125714
 21
7.110320505732
 31
0.0
  0
ARC
  5
30B
100
AcDbEntity
  8
Exterior View
370
           0
  6
Continuous
 62
           7
 48
0.20000000298
100
AcDbCircle
 10
55.542315125714
 20
6.641570505732
 30
0.0
 40
0.46875
100
AcDbArc
 50
-76.153762707892
 51
89.999999999998
  0
LINE
  5
30C
100
AcDbEntity
  8
Exterior View
370
           0
  6
Continuous
 62
           7
 48
0.20000000298
100
AcDbLine
 10
55.654495006202
 20
6.186441692193
 30
0.0
 11
54.584948512693
 21
5.922820505732
 31
0.0
  0
ARC
  5
30D
100
AcDbEntity
  8
Exterior View
370
           0
  6
Continuous
 62
           7
 48
0.20000000298
100
AcDbCircle
 10
54.261065125713
 20
19.240070505731
 30
0.0
 40
11.968749999999
100
AcDbArc
 50
-93.327838145247
 51
-86.67216183672
  0
ARC
  5
30E
100
AcDbEntity
  8
Exterior View
370
           0
  6
Continuous
 62
           7
 48
0.20000000298
100
AcDbCircle
 10
53.57898842108
 20
7.509884174349
 30
0.0
 40
0.21875
100
AcDbArc
 50
179.365789942152
 51
266.672160894082
  0
ARC
  5
30F
100
AcDbEntity
  8
Exterior View
370
           0
  6
Continuous
 62
           7
 48
0.20000000298
100
AcDbCircle
 10
54.943141830348
 20
7.509884174349
 30
0.0
 40
0.21875
100
AcDbArc
 50
-86.672157246227
 51
0.634210057861
  0
LINE
  5
310
100
AcDbEntity
  8
Exterior View
370
           0
  6
Continuous
 62
           7
 48
0.20000000298
100
AcDbLine
 10
55.123727211518
 20
10.958820505733
 30
0.0
 11
55.161878429428
 21
7.512305480391
 31
0.0
  0
LINE
  5
311
100
AcDbEntity
  8
Exterior View
370
           0
  6
Continuous
 62
           7
 48
0.20000000298
100
AcDbLine
 10
53.360236507132
 20
7.5109219617
 30
0.0
 11
53.39840303991
 21
10.958820505733
 31
0.0
  0
LINE
  5
312
100
AcDbEntity
  8
Exterior View
370
           0
  6
Continuous
 62
           7
 48
0.20000000298
100
AcDbLine
 10
55.123727211518
 20
10.958820505733
 30
0.0
 11
53.39840303991
 21
10.958820505733
 31
0.0
  0
ARC
  5
313
100
AcDbEntity
  8
Exterior View
370
           0
  6
Continuous
 62
           7
 48
0.20000000298
100
AcDbCircle
 10
85.350561624527
 20
10.101353803783
 30
0.0
 40
0.968843769329
100
AcDbArc
 50
78.796298469584
 51
180.838773338657
  0
ARC
  5
314
100
AcDbEntity
  8
Exterior View
370
           0
  6
Continuous
 62
           7
 48
0.20000000298
100
AcDbCircle
 10
84.939599271349
 20
8.343000522688
 30
0.0
 40
2.775429080219
100
AcDbArc
 50
1.850918468677
 51
77.482486429157
  0
LWPOLYLINE
  5
315
100
AcDbEntity
  8
Exterior View
370
           0
  6
Continuous
 62
           7
 48
0.20000000298
100
AcDbPolyline
 90
       12
 70
           0
 10
87.21692317332
 20
6.661712105362
 10
87.298688205907
 20
6.798673038484
 10
87.374898028226
 20
6.94289592883
 10
87.444032219232
 20
7.091931375696
 10
87.505842770044
 20
7.245440008118
 10
87.560092912788
 20
7.403088817278
 10
87.606555142128
 20
7.564562662975
 10
87.645007686073
 20
7.729585160331
 10
87.67522790636
 20
7.897961981772
 10
87.696978602592
 20
8.069690202549
 10
87.709973881051
 20
8.245366280359
 10
87.713628031916
 20
8.427738007632
  0
ARC
  5
316
100
AcDbEntity
  8
Exterior View
370
           0
  6
Continuous
 62
           7
 48
0.20000000298
100
AcDbCircle
 10
84.978013966729
 20
7.99574659325
 30
0.0
 40
2.606216152563
100
AcDbArc
 50
-76.867213625539
 51
-30.786410656632
  0
ARC
  5
317
100
AcDbEntity
  8
Exterior View
370
           0
  6
Continuous
 62
           7
 48
0.20000000298
100
AcDbCircle
 10
85.350561624527
 20
6.401244161122
 30
0.0
 40
0.96875
100
AcDbArc
 50
180.0
 51
283.098775829247
  0
LINE
  5
318
100
AcDbEntity
  8
Exterior View
370
           0
  6
Continuous
 62
           7
 48
0.20000000298
100
AcDbLine
 10
84.381811624527
 20
10.114164155811
 30
0.0
 11
84.381811624527
 21
6.401244161122
 31
0.0
  0
ARC
  5
319
100
AcDbEntity
  8
Exterior View
370
           0
  6
Continuous
 62
           7
 48
0.20000000298
100
AcDbCircle
 10
86.09708876765
 20
12.010591331971
 30
0.0
 40
0.59375
100
AcDbArc
 50
179.820029733539
 51
248.817859387599
  0
ARC
  5
31A
100
AcDbEntity
  8
Exterior View
370
           0
  6
Continuous
 62
           7
 48
0.20000000298
100
AcDbCircle
 10
86.41956056287
 20
12.170822341189
 30
0.0
 40
0.84375
100
AcDbArc
 50
-105.496898975428
 51
0.000011229639
  0
ARC
  5
31B
100
AcDbEntity
  8
Exterior View
370
           0
  6
Continuous
 62
           7
 48
0.20000000298
100
AcDbCircle
 10
86.846060294065
 20
13.943341867804
 30
0.0
 40
2.66654593331
100
AcDbArc
 50
-111.182140919771
 51
-104.102702264426
  0
ARC
  5
31C
100
AcDbEntity
  8
Exterior View
370
           0
  6
Continuous
 62
           7
 48
0.20000000298
100
AcDbCircle
 10
86.66956056287
 20
12.391582766704
 30
0.0
 40
0.59375
100
AcDbArc
 50
0.0
 51
59.999999999997
  0
ARC
  5
31D
100
AcDbEntity
  8
Exterior View
370
           0
  6
Continuous
 62
           7
 48
0.20000000298
100
AcDbCircle
 10
86.66956056287
 20
12.391582766704
 30
0.0
 40
0.59375
100
AcDbArc
 50
0.0
 51
59.999999999997
  0
LINE
  5
31E
100
AcDbEntity
  8
Exterior View
370
           0
  6
Continuous
 62
           7
 48
0.20000000298
100
AcDbLine
 10
87.26331056287
 20
12.391582766704
 30
0.0
 11
87.26331056287
 21
12.170822488184
 31
0.0
  0
ARC
  5
31F
100
AcDbEntity
  8
Exterior View
370
           0
  6
Continuous
 62
           7
 48
0.20000000298
100
AcDbCircle
 10
86.66956056287
 20
13.690620872381
 30
0.0
 40
0.59375
100
AcDbArc
 50
-60.000000000001
 51
0.0
  0
ARC
  5
320
100
AcDbEntity
  8
Exterior View
370
           0
  6
Continuous
 62
           7
 48
0.20000000298
100
AcDbCircle
 10
87.04456056287
 20
13.041101819543
 30
0.0
 40
0.15625
100
AcDbArc
 50
120.000000000015
 51
239.999999999985
  0
ARC
  5
321
100
AcDbEntity
  8
Exterior View
370
           0
  6
Continuous
 62
           7
 48
0.20000000298
100
AcDbCircle
 10
86.41956056287
 20
13.690620872381
 30
0.0
 40
0.84375
100
AcDbArc
 50
0.0
 51
66.681349343402
  0
LINE
  5
322
100
AcDbEntity
  8
Exterior View
370
           0
  6
Continuous
 62
           7
 48
0.20000000298
100
AcDbLine
 10
86.753554317567
 20
14.465451327593
 30
0.0
 11
85.395995925573
 21
15.050632281068
 31
0.0
  0
ARC
  5
323
100
AcDbEntity
  8
Exterior View
370
           0
  6
Continuous
 62
           7
 48
0.20000000298
100
AcDbCircle
 10
85.062002170876
 20
14.275801825856
 30
0.0
 40
0.84375
100
AcDbArc
 50
66.681348489634
 51
169.871388409341
  0
ARC
  5
324
100
AcDbEntity
  8
Exterior View
370
           0
  6
Continuous
 62
           7
 48
0.20000000298
100
AcDbCircle
 10
87.387217540108
 20
13.86041980191
 30
0.0
 40
3.205776405256
100
AcDbArc
 50
169.871388409343
 51
180.330660582576
  0
ARC
  5
325
100
AcDbEntity
  8
Exterior View
370
           0
  6
Continuous
 62
           7
 48
0.20000000298
100
AcDbCircle
 10
86.846060294065
 20
13.943341867803
 30
0.0
 40
2.666545933309
100
AcDbArc
 50
-177.752800655918
 51
-144.477141778023
  0
ARC
  5
326
100
AcDbEntity
  8
Exterior View
370
           0
  6
Continuous
 62
           7
 48
0.20000000298
100
AcDbCircle
 10
85.159045299917
 20
12.738990012795
 30
0.0
 40
0.59375
100
AcDbArc
 50
-144.477141865973
 51
-75.479312211908
  0
ARC
  5
327
100
AcDbEntity
  8
Exterior View
370
           0
  6
Continuous
 62
           7
 48
0.20000000298
100
AcDbCircle
 10
85.347092467525
 20
12.012947133376
 30
0.0
 40
0.15625
100
AcDbArc
 50
-0.179970266459
 51
104.520687788085
  0
ARC
  5
328
100
AcDbEntity
  8
Exterior View
370
           0
  6
Continuous
 62
           7
 48
0.20000000298
100
AcDbCircle
 10
98.900299250205
 20
7.926683493765
 30
0.0
 40
0.46875
100
AcDbArc
 50
90.0
 51
256.153762878349
  0
LINE
  5
329
100
AcDbEntity
  8
Exterior View
370
           0
  6
Continuous
 62
           7
 48
0.20000000298
100
AcDbLine
 10
98.900299239029
 20
8.395433493765
 30
0.0
 11
101.462799250205
 21
8.395433493765
 31
0.0
  0
ARC
  5
32A
100
AcDbEntity
  8
Exterior View
370
           0
  6
Continuous
 62
           7
 48
0.20000000298
100
AcDbCircle
 10
101.462799250205
 20
7.926683493765
 30
0.0
 40
0.46875
100
AcDbArc
 50
-76.1537627079
 51
90.0
  0
LINE
  5
32B
100
AcDbEntity
  8
Exterior View
370
           0
  6
Continuous
 62
           7
 48
0.20000000298
100
AcDbLine
 10
101.574979130693
 20
7.471554680226
 30
0.0
 11
100.505432637184
 21
7.207933493765
 31
0.0
  0
LINE
  5
32C
100
AcDbEntity
  8
Exterior View
370
           0
  6
Continuous
 62
           7
 48
0.20000000298
100
AcDbLine
 10
99.85766587692
 20
7.207933493765
 30
0.0
 11
100.505432637184
 21
7.207933493765
 31
0.0
  0
LINE
  5
32D
100
AcDbEntity
  8
Exterior View
370
           0
  6
Continuous
 62
           7
 48
0.20000000298
100
AcDbLine
 10
98.788119371072
 20
7.471554679892
 30
0.0
 11
99.85766587692
 21
7.207933493765
 31
0.0
  0
LINE
  5
32E
100
AcDbEntity
  8
Exterior View
370
           0
  6
Continuous
 62
           7
 48
0.20000000298
100
AcDbLine
 10
100.505432637184
 20
10.649843309073
 30
0.0
 11
99.85766587692
 21
10.649843309073
 31
0.0
  0
LINE
  5
32F
100
AcDbEntity
  8
Exterior View
370
           0
  6
Continuous
 62
           7
 48
0.20000000298
100
AcDbLine
 10
98.788119371072
 20
10.913464495199
 30
0.0
 11
99.85766587692
 21
10.649843309073
 31
0.0
  0
ARC
  5
330
100
AcDbEntity
  8
Exterior View
370
           0
  6
Continuous
 62
           7
 48
0.20000000298
100
AcDbCircle
 10
98.900299250205
 20
11.368593309073
 30
0.0
 40
0.46875
100
AcDbArc
 50
90.0
 51
256.153762878355
  0
LINE
  5
331
100
AcDbEntity
  8
Exterior View
370
           0
  6
Continuous
 62
           7
 48
0.20000000298
100
AcDbLine
 10
98.900299239029
 20
11.837343309073
 30
0.0
 11
101.462799250205
 21
11.837343309073
 31
0.0
  0
ARC
  5
332
100
AcDbEntity
  8
Exterior View
370
           0
  6
Continuous
 62
           7
 48
0.20000000298
100
AcDbCircle
 10
101.462799250205
 20
11.368593309073
 30
0.0
 40
0.46875
100
AcDbArc
 50
-76.153762707887
 51
89.999999999993
  0
LINE
  5
333
100
AcDbEntity
  8
Exterior View
370
           0
  6
Continuous
 62
           7
 48
0.20000000298
100
AcDbLine
 10
101.574979130693
 20
10.913464495533
 30
0.0
 11
100.505432637184
 21
10.649843309073
 31
0.0
  0
ARC
  5
334
100
AcDbEntity
  8
Exterior View
370
           0
  6
Continuous
 62
           7
 48
0.20000000298
100
AcDbCircle
 10
100.181549250204
 20
23.967093309071
 30
0.0
 40
11.968749999999
100
AcDbArc
 50
-93.327838145247
 51
-86.67216183672
  0
ARC
  5
335
100
AcDbEntity
  8
Exterior View
370
           0
  6
Continuous
 62
           7
 48
0.20000000298
100
AcDbCircle
 10
99.499472545571
 20
12.236906977689
 30
0.0
 40
0.21875
100
AcDbArc
 50
179.365789942153
 51
266.672160894086
  0
ARC
  5
336
100
AcDbEntity
  8
Exterior View
370
           0
  6
Continuous
 62
           7
 48
0.20000000298
100
AcDbCircle
 10
100.863625954839
 20
12.236906977689
 30
0.0
 40
0.21875
100
AcDbArc
 50
-86.67215724622
 51
0.634210057861
  0
LINE
  5
337
100
AcDbEntity
  8
Exterior View
370
           0
  6
Continuous
 62
           7
 48
0.20000000298
100
AcDbLine
 10
101.044211336009
 20
15.685843309073
 30
0.0
 11
101.082362553919
 21
12.239328283731
 31
0.0
  0
LINE
  5
338
100
AcDbEntity
  8
Exterior View
370
           0
  6
Continuous
 62
           7
 48
0.20000000298
100
AcDbLine
 10
99.280720631623
 20
12.23794476504
 30
0.0
 11
99.318887164401
 21
15.685843309073
 31
0.0
  0
LINE
  5
339
100
AcDbEntity
  8
Exterior View
370
           0
  6
Continuous
 62
           7
 48
0.20000000298
100
AcDbLine
 10
101.044211336009
 20
15.685843309073
 30
0.0
 11
99.318887164401
 21
15.685843309073
 31
0.0
  0
ARC
  5
33A
100
AcDbEntity
  8
Exterior View
370
           0
  6
Continuous
 62
           7
 48
0.20000000298
100
AcDbCircle
 10
51.37912418903
 20
21.131197052269
 30
0.0
 40
0.968843769329
100
AcDbArc
 50
-0.838773338657
 51
101.203701530417
  0
ARC
  5
33B
100
AcDbEntity
  8
Exterior View
370
           0
  6
Continuous
 62
           7
 48
0.20000000298
100
AcDbCircle
 10
51.790086542207
 20
19.372843771173
 30
0.0
 40
2.775429080219
100
AcDbArc
 50
102.517513570842
 51
178.149081531323
  0
LWPOLYLINE
  5
33C
100
AcDbEntity
  8
Exterior View
370
           0
  6
Continuous
 62
           7
 48
0.20000000298
100
AcDbPolyline
 90
       12
 70
           0
 10
49.512762640237
 20
17.691555353847
 10
49.430997607649
 20
17.828516286969
 10
49.35478778533
 20
17.972739177316
 10
49.285653594325
 20
18.121774624181
 10
49.223843043512
 20
18.275283256603
 10
49.169592900769
 20
18.432932065764
 10
49.123130671429
 20
18.59440591146
 10
49.084678127484
 20
18.759428408816
 10
49.054457907197
 20
18.927805230257
 10
49.032707210965
 20
19.099533451035
 10
49.019711932505
 20
19.275209528845
 10
49.01605778164
 20
19.457581256117
  0
ARC
  5
33D
100
AcDbEntity
  8
Exterior View
370
           0
  6
Continuous
 62
           7
 48
0.20000000298
100
AcDbCircle
 10
51.751671846827
 20
19.025589841735
 30
0.0
 40
2.606216152563
100
AcDbArc
 50
-149.213589343368
 51
-103.132786374461
  0
ARC
  5
33E
100
AcDbEntity
  8
Exterior View
370
           0
  6
Continuous
 62
           7
 48
0.20000000298
100
AcDbCircle
 10
51.37912418903
 20
17.431087409608
 30
0.0
 40
0.96875
100
AcDbArc
 50
-103.098775829249
 51
0.0
  0
LINE
  5
33F
100
AcDbEntity
  8
Exterior View
370
           0
  6
Continuous
 62
           7
 48
0.20000000298
100
AcDbLine
 10
52.34787418903
 20
21.144007404296
 30
0.0
 11
52.34787418903
 21
17.431087409608
 31
0.0
  0
ARC
  5
340
100
AcDbEntity
  8
Exterior View
370
           0
  6
Continuous
 62
           7
 48
0.20000000298
100
AcDbCircle
 10
51.056652393809
 20
21.291428061486
 30
0.0
 40
0.59375
100
AcDbArc
 50
111.1821406124
 51
180.179970266461
  0
ARC
  5
341
100
AcDbEntity
  8
Exterior View
370
           0
  6
Continuous
 62
           7
 48
0.20000000298
100
AcDbCircle
 10
51.37912418903
 20
21.131197052269
 30
0.0
 40
0.84375
100
AcDbArc
 50
-0.000011229639
 51
105.496898975429
  0
ARC
  5
342
100
AcDbEntity
  8
Exterior View
370
           0
  6
Continuous
 62
           7
 48
0.20000000298
100
AcDbCircle
 10
51.62912418903
 20
20.910436626753
 30
0.0
 40
0.59375
100
AcDbArc
 50
-59.999999999999
 51
0.0
  0
ARC
  5
343
100
AcDbEntity
  8
Exterior View
370
           0
  6
Continuous
 62
           7
 48
0.20000000298
100
AcDbCircle
 10
51.62912418903
 20
20.910436626753
 30
0.0
 40
0.59375
100
AcDbArc
 50
-59.999999999999
 51
0.0
  0
LINE
  5
344
100
AcDbEntity
  8
Exterior View
370
           0
  6
Continuous
 62
           7
 48
0.20000000298
100
AcDbLine
 10
52.22287418903
 20
20.910436626753
 30
0.0
 11
52.22287418903
 21
21.131196905273
 31
0.0
  0
ARC
  5
345
100
AcDbEntity
  8
Exterior View
370
           0
  6
Continuous
 62
           7
 48
0.20000000298
100
AcDbCircle
 10
51.62912418903
 20
19.611398521076
 30
0.0
 40
0.59375
100
AcDbArc
 50
0.0
 51
60.000000000002
  0
ARC
  5
346
100
AcDbEntity
  8
Exterior View
370
           0
  6
Continuous
 62
           7
 48
0.20000000298
100
AcDbCircle
 10
52.00412418903
 20
20.260917573915
 30
0.0
 40
0.15625
100
AcDbArc
 50
120.000000000008
 51
239.999999999992
  0
ARC
  5
347
100
AcDbEntity
  8
Exterior View
370
           0
  6
Continuous
 62
           7
 48
0.20000000298
100
AcDbCircle
 10
51.37912418903
 20
19.611398521076
 30
0.0
 40
0.84375
100
AcDbArc
 50
-66.681349343403
 51
0.0
  0
LINE
  5
348
100
AcDbEntity
  8
Exterior View
370
           0
  6
Continuous
 62
           7
 48
0.20000000298
100
AcDbLine
 10
51.713117943727
 20
18.836568065865
 30
0.0
 11
50.355559551732
 21
18.25138711239
 31
0.0
  0
ARC
  5
349
100
AcDbEntity
  8
Exterior View
370
           0
  6
Continuous
 62
           7
 48
0.20000000298
100
AcDbCircle
 10
50.021565797036
 20
19.026217567602
 30
0.0
 40
0.84375
100
AcDbArc
 50
-169.871388409342
 51
-66.681348489633
  0
ARC
  5
34A
100
AcDbEntity
  8
Exterior View
370
           0
  6
Continuous
 62
           7
 48
0.20000000298
100
AcDbCircle
 10
52.346781166267
 20
19.441599591548
 30
0.0
 40
3.205776405256
100
AcDbArc
 50
179.669339417424
 51
190.128611590657
  0
ARC
  5
34B
100
AcDbEntity
  8
Exterior View
370
           0
  6
Continuous
 62
           7
 48
0.20000000298
100
AcDbCircle
 10
51.805623920225
 20
19.358677525654
 30
0.0
 40
2.666545933309
100
AcDbArc
 50
144.477141778023
 51
177.752800655918
  0
ARC
  5
34C
100
AcDbEntity
  8
Exterior View
370
           0
  6
Continuous
 62
           7
 48
0.20000000298
100
AcDbCircle
 10
50.118608926077
 20
20.563029380663
 30
0.0
 40
0.59375
100
AcDbArc
 50
75.479312211908
 51
144.477141865974
  0
ARC
  5
34D
100
AcDbEntity
  8
Exterior View
370
           0
  6
Continuous
 62
           7
 48
0.20000000298
100
AcDbCircle
 10
50.306656093685
 20
21.289072260081
 30
0.0
 40
0.15625
100
AcDbArc
 50
-104.520687788085
 51
0.179970266459
  0
LINE
  5
34E
100
AcDbEntity
  8
Exterior View
370
           0
  6
Continuous
 62
           7
100
AcDbLine
 10
50.842110365497
 20
21.8450622192
 30
0.0
 11
51.153685815036
 21
21.944272449775
 31
0.0
1001
TCAD
1000
TCW_CUSTOM_DATA
1002
{
1000
#$AUX@_ToolInfo Properties
1070
           8
1000
Insert^JLine^JSingle@Line Single
1002
}
  0
LINE
  5
34F
100
AcDbEntity
  8
Exterior View
370
           0
  6
Continuous
 62
           7
100
AcDbLine
 10
72.422146392045
 20
15.696097857152
 30
0.0
 11
73.672146392045
 21
15.696097857152
 31
0.0
1001
TCAD
1000
TCW_CUSTOM_DATA
1002
{
1000
#$AUX@_ToolInfo Properties
1070
           8
1000
Insert^JLine^JSingle@Line Single
1002
}
  0
LINE
  5
350
100
AcDbEntity
  8
Exterior View
370
           0
  6
Continuous
 62
           7
 48
0.20000000298
100
AcDbLine
 10
72.235307340939
 20
-1.182618792977
 30
0.0
 11
72.422146392045
 21
15.696097857152
 31
0.0
1001
TCAD
1000
TCW_CUSTOM_DATA
1002
{
1000
#$AUX@_ToolInfo Properties
1070
           8
1000
Insert^JLine^JSingle@Line Single
1002
}
  0
LINE
  5
351
100
AcDbEntity
  8
Exterior View
370
           0
  6
Continuous
 62
           7
 48
0.20000000298
100
AcDbLine
 10
73.672146392045
 20
15.696097857152
 30
0.0
 11
73.858985443153
 21
-1.182618792977
 31
0.0
1001
TCAD
1000
TCW_CUSTOM_DATA
1002
{
1000
#$AUX@_ToolInfo Properties
1070
           8
1000
Insert^JLine^JSingle@Line Single
1002
}
  0
ARC
  5
352
100
AcDbEntity
  8
Exterior View
370
           0
  6
Continuous
 62
           7
 48
0.20000000298
100
AcDbCircle
 10
73.047146392045
 20
10.664597857152
 30
0.0
 40
11.875
100
AcDbArc
 50
-93.920106231505
 51
-86.079893768488
  0
LINE
  5
353
100
AcDbEntity
  8
Hidden
370
           0
  6
HIDDEN
 62
           7
 48
0.20000000298
100
AcDbLine
 10
-0.687500000039
 20
6.782532919725
 30
0.0
 11
-0.187500000039
 21
6.782532919725
 31
0.0
1001
TCAD
1000
TCW_CUSTOM_DATA
1002
{
1000
#$AUX@_ToolInfo Properties
1070
           8
1000
Insert^JLine^JPerpendicular@Line Perpendicular
1002
}
  0
LINE
  5
354
100
AcDbEntity
  8
Hidden
370
           0
  6
HIDDEN
 62
           7
 48
0.20000000298
100
AcDbLine
 10
-0.687500000039
 20
7.532532919725
 30
0.0
 11
-0.1875
 21
7.532532919725
 31
0.0
1001
TCAD
1000
TCW_CUSTOM_DATA
1002
{
1000
#$AUX@_ToolInfo Properties
1070
           8
1000
Insert^JLine^JPerpendicular@Line Perpendicular
1002
}
  0
LINE
  5
355
100
AcDbEntity
  8
Hidden
370
           0
  6
HIDDEN
 62
           7
 48
0.20000000298
100
AcDbLine
 10
0.187499999961
 20
6.782532919725
 30
0.0
 11
0.187499999961
 21
7.532532919725
 31
0.0
1001
TCAD
1000
TCW_CUSTOM_DATA
1002
{
1000
#$AUX@_ToolInfo Properties
1070
           8
1000
Insert^JLine^JPerpendicular@Line Perpendicular
1002
}
  0
LINE
  5
356
100
AcDbEntity
  8
Hidden
370
           0
  6
HIDDEN
 62
           7
 48
0.20000000298
100
AcDbLine
 10
0.687499999961
 20
6.782532919725
 30
0.000000182879
 11
0.687499999961
 21
7.532532919725
 31
0.000000182879
1001
TCAD
1000
TCW_CUSTOM_DATA
1002
{
1000
#$AUX@_ToolInfo Properties
1070
           8
1000
Insert^JLine^JPerpendicular@Line Perpendicular
1002
}
  0
LINE
  5
357
100
AcDbEntity
  8
Hidden
370
           0
  6
HIDDEN
 62
           7
 48
0.20000000298
100
AcDbLine
 10
0.187499999961
 20
6.782532919725
 30
0.0
 11
0.687499999961
 21
6.782532919725
 31
0.0
1001
TCAD
1000
TCW_CUSTOM_DATA
1002
{
1000
#$AUX@_ToolInfo Properties
1070
           8
1000
Insert^JLine^JPerpendicular@Line Perpendicular
1002
}
  0
LINE
  5
358
100
AcDbEntity
  8
Hidden
370
           0
  6
HIDDEN
 62
           7
 48
0.20000000298
100
AcDbLine
 10
0.187499999961
 20
7.532532919725
 30
0.0
 11
0.6875
 21
7.532532919725
 31
0.0
1001
TCAD
1000
TCW_CUSTOM_DATA
1002
{
1000
#$AUX@_ToolInfo Properties
1070
           8
1000
Insert^JLine^JPerpendicular@Line Perpendicular
1002
}
  0
LINE
  5
359
100
AcDbEntity
  8
Hidden
370
           0
  6
HIDDEN
 62
           7
 48
0.20000000298
100
AcDbLine
 10
-0.632227985563
 20
8.543842362286
 30
0.0
 11
-0.632227985563
 21
9.293842362286
 31
0.0
1001
TCAD
1000
TCW_CUSTOM_DATA
1002
{
1000
#$AUX@_ToolInfo Properties
1070
           8
1000
Insert^JLine^JPerpendicular@Line Perpendicular
1002
}
  0
LINE
  5
35A
100
AcDbEntity
  8
Hidden
370
           0
  6
HIDDEN
 62
           7
 48
0.20000000298
100
AcDbLine
 10
-0.132227985563
 20
8.543842362286
 30
0.000000182879
 11
-0.132227985563
 21
9.293842362286
 31
0.000000182879
1001
TCAD
1000
TCW_CUSTOM_DATA
1002
{
1000
#$AUX@_ToolInfo Properties
1070
           8
1000
Insert^JLine^JPerpendicular@Line Perpendicular
1002
}
  0
LINE
  5
35B
100
AcDbEntity
  8
Hidden
370
           0
  6
HIDDEN
 62
           7
 48
0.20000000298
100
AcDbLine
 10
-0.632227985563
 20
8.543842362286
 30
0.0
 11
-0.132227985563
 21
8.543842362286
 31
0.0
1001
TCAD
1000
TCW_CUSTOM_DATA
1002
{
1000
#$AUX@_ToolInfo Properties
1070
           8
1000
Insert^JLine^JPerpendicular@Line Perpendicular
1002
}
  0
LINE
  5
35C
100
AcDbEntity
  8
Hidden
370
           0
  6
HIDDEN
 62
           7
 48
0.20000000298
100
AcDbLine
 10
-0.632227985563
 20
9.293842362286
 30
0.0
 11
-0.132227985524
 21
9.293842362286
 31
0.0
1001
TCAD
1000
TCW_CUSTOM_DATA
1002
{
1000
#$AUX@_ToolInfo Properties
1070
           8
1000
Insert^JLine^JPerpendicular@Line Perpendicular
1002
}
  0
LINE
  5
35D
100
AcDbEntity
  8
Hidden
370
           0
  6
HIDDEN
 62
           7
 48
0.20000000298
100
AcDbLine
 10
0.156228668683
 20
8.312282489565
 30
0.0
 11
0.156228668683
 21
9.062282489565
 31
0.0
1001
TCAD
1000
TCW_CUSTOM_DATA
1002
{
1000
#$AUX@_ToolInfo Properties
1070
           8
1000
Insert^JLine^JPerpendicular@Line Perpendicular
1002
}
  0
LINE
  5
35E
100
AcDbEntity
  8
Hidden
370
           0
  6
HIDDEN
 62
           7
 48
0.20000000298
100
AcDbLine
 10
0.656228668683
 20
8.312282489565
 30
0.000000182879
 11
0.656228668683
 21
9.062282489565
 31
0.000000182879
1001
TCAD
1000
TCW_CUSTOM_DATA
1002
{
1000
#$AUX@_ToolInfo Properties
1070
           8
1000
Insert^JLine^JPerpendicular@Line Perpendicular
1002
}
  0
LINE
  5
35F
100
AcDbEntity
  8
Hidden
370
           0
  6
HIDDEN
 62
           7
 48
0.20000000298
100
AcDbLine
 10
0.156228668683
 20
8.312282489565
 30
0.0
 11
0.656228668683
 21
8.312282489565
 31
0.0
1001
TCAD
1000
TCW_CUSTOM_DATA
1002
{
1000
#$AUX@_ToolInfo Properties
1070
           8
1000
Insert^JLine^JPerpendicular@Line Perpendicular
1002
}
  0
LINE
  5
360
100
AcDbEntity
  8
Hidden
370
           0
  6
HIDDEN
 62
           7
 48
0.20000000298
100
AcDbLine
 10
0.156228668683
 20
9.062282489565
 30
0.0
 11
0.656228668722
 21
9.062282489565
 31
0.0
1001
TCAD
1000
TCW_CUSTOM_DATA
1002
{
1000
#$AUX@_ToolInfo Properties
1070
           8
1000
Insert^JLine^JPerpendicular@Line Perpendicular
1002
}
  0
LINE
  5
361
100
AcDbEntity
  8
Exterior View
370
           0
  6
Continuous
 62
           7
 48
0.20000000298
100
AcDbLine
 10
65.849942172925
 20
-0.764529038455
 30
0.0
 11
65.849942172925
 21
-0.014529038455
 31
0.0
1001
TCAD
1000
TCW_CUSTOM_DATA
1002
{
1000
#$AUX@_ToolInfo Properties
1070
           8
1000
Insert^JLine^JPerpendicular@Line Perpendicular
1002
}
  0
LINE
  5
362
100
AcDbEntity
  8
Exterior View
370
           0
  6
Continuous
 62
           7
 48
0.20000000298
100
AcDbLine
 10
66.349942172925
 20
-0.764529038455
 30
0.000000182879
 11
66.349942172925
 21
-0.014529038455
 31
0.000000182879
1001
TCAD
1000
TCW_CUSTOM_DATA
1002
{
1000
#$AUX@_ToolInfo Properties
1070
           8
1000
Insert^JLine^JPerpendicular@Line Perpendicular
1002
}
  0
LINE
  5
363
100
AcDbEntity
  8
Exterior View
370
           0
  6
Continuous
 62
           7
 48
0.20000000298
100
AcDbLine
 10
65.849942172925
 20
-0.764529038455
 30
0.0
 11
66.349942172925
 21
-0.764529038455
 31
0.0
1001
TCAD
1000
TCW_CUSTOM_DATA
1002
{
1000
#$AUX@_ToolInfo Properties
1070
           8
1000
Insert^JLine^JPerpendicular@Line Perpendicular
1002
}
  0
LINE
  5
364
100
AcDbEntity
  8
Exterior View
370
           0
  6
Continuous
 62
           7
 48
0.20000000298
100
AcDbLine
 10
65.849942172925
 20
-0.014529038455
 30
0.0
 11
66.349942172965
 21
-0.014529038455
 31
0.0
1001
TCAD
1000
TCW_CUSTOM_DATA
1002
{
1000
#$AUX@_ToolInfo Properties
1070
           8
1000
Insert^JLine^JPerpendicular@Line Perpendicular
1002
}
  0
LINE
  5
365
100
AcDbEntity
  8
Exterior View
370
           0
  6
Continuous
 62
           7
 48
0.20000000298
100
AcDbLine
 10
66.724942172925
 20
-0.764529038455
 30
0.0
 11
66.724942172925
 21
-0.014529038455
 31
0.0
1001
TCAD
1000
TCW_CUSTOM_DATA
1002
{
1000
#$AUX@_ToolInfo Properties
1070
           8
1000
Insert^JLine^JPerpendicular@Line Perpendicular
1002
}
  0
LINE
  5
366
100
AcDbEntity
  8
Exterior View
370
           0
  6
Continuous
 62
           7
 48
0.20000000298
100
AcDbLine
 10
67.224942172925
 20
-0.764529038455
 30
0.000000182879
 11
67.224942172925
 21
-0.014529038455
 31
0.000000182879
1001
TCAD
1000
TCW_CUSTOM_DATA
1002
{
1000
#$AUX@_ToolInfo Properties
1070
           8
1000
Insert^JLine^JPerpendicular@Line Perpendicular
1002
}
  0
LINE
  5
367
100
AcDbEntity
  8
Exterior View
370
           0
  6
Continuous
 62
           7
 48
0.20000000298
100
AcDbLine
 10
66.724942172925
 20
-0.764529038455
 30
0.0
 11
67.224942172925
 21
-0.764529038455
 31
0.0
1001
TCAD
1000
TCW_CUSTOM_DATA
1002
{
1000
#$AUX@_ToolInfo Properties
1070
           8
1000
Insert^JLine^JPerpendicular@Line Perpendicular
1002
}
  0
LINE
  5
368
100
AcDbEntity
  8
Exterior View
370
           0
  6
Continuous
 62
           7
 48
0.20000000298
100
AcDbLine
 10
66.724942172925
 20
-0.014529038455
 30
0.0
 11
67.224942172965
 21
-0.014529038455
 31
0.0
1001
TCAD
1000
TCW_CUSTOM_DATA
1002
{
1000
#$AUX@_ToolInfo Properties
1070
           8
1000
Insert^JLine^JPerpendicular@Line Perpendicular
1002
}
  0
LINE
  5
369
100
AcDbEntity
  8
Exterior View
370
           0
  6
Continuous
 62
           7
 48
0.20000000298
100
AcDbLine
 10
65.905214187401
 20
0.996780404105
 30
0.0
 11
65.905214187401
 21
1.746780404105
 31
0.0
1001
TCAD
1000
TCW_CUSTOM_DATA
1002
{
1000
#$AUX@_ToolInfo Properties
1070
           8
1000
Insert^JLine^JPerpendicular@Line Perpendicular
1002
}
  0
LINE
  5
36A
100
AcDbEntity
  8
Exterior View
370
           0
  6
Continuous
 62
           7
 48
0.20000000298
100
AcDbLine
 10
66.405214187401
 20
0.996780404105
 30
0.000000182879
 11
66.405214187401
 21
1.746780404105
 31
0.000000182879
1001
TCAD
1000
TCW_CUSTOM_DATA
1002
{
1000
#$AUX@_ToolInfo Properties
1070
           8
1000
Insert^JLine^JPerpendicular@Line Perpendicular
1002
}
  0
LINE
  5
36B
100
AcDbEntity
  8
Exterior View
370
           0
  6
Continuous
 62
           7
 48
0.20000000298
100
AcDbLine
 10
65.905214187401
 20
0.996780404105
 30
0.0
 11
66.405214187401
 21
0.996780404105
 31
0.0
1001
TCAD
1000
TCW_CUSTOM_DATA
1002
{
1000
#$AUX@_ToolInfo Properties
1070
           8
1000
Insert^JLine^JPerpendicular@Line Perpendicular
1002
}
  0
LINE
  5
36C
100
AcDbEntity
  8
Exterior View
370
           0
  6
Continuous
 62
           7
 48
0.20000000298
100
AcDbLine
 10
65.905214187401
 20
1.746780404105
 30
0.0
 11
66.40521418744
 21
1.746780404105
 31
0.0
1001
TCAD
1000
TCW_CUSTOM_DATA
1002
{
1000
#$AUX@_ToolInfo Properties
1070
           8
1000
Insert^JLine^JPerpendicular@Line Perpendicular
1002
}
  0
LINE
  5
36D
100
AcDbEntity
  8
Exterior View
370
           0
  6
Continuous
 62
           7
 48
0.20000000298
100
AcDbLine
 10
66.693670841648
 20
0.765220531385
 30
0.0
 11
66.693670841648
 21
1.515220531385
 31
0.0
1001
TCAD
1000
TCW_CUSTOM_DATA
1002
{
1000
#$AUX@_ToolInfo Properties
1070
           8
1000
Insert^JLine^JPerpendicular@Line Perpendicular
1002
}
  0
LINE
  5
36E
100
AcDbEntity
  8
Exterior View
370
           0
  6
Continuous
 62
           7
 48
0.20000000298
100
AcDbLine
 10
67.193670841648
 20
0.765220531385
 30
0.000000182879
 11
67.193670841648
 21
1.515220531385
 31
0.000000182879
1001
TCAD
1000
TCW_CUSTOM_DATA
1002
{
1000
#$AUX@_ToolInfo Properties
1070
           8
1000
Insert^JLine^JPerpendicular@Line Perpendicular
1002
}
  0
LINE
  5
36F
100
AcDbEntity
  8
Exterior View
370
           0
  6
Continuous
 62
           7
 48
0.20000000298
100
AcDbLine
 10
66.693670841648
 20
0.765220531385
 30
0.0
 11
67.193670841648
 21
0.765220531385
 31
0.0
1001
TCAD
1000
TCW_CUSTOM_DATA
1002
{
1000
#$AUX@_ToolInfo Properties
1070
           8
1000
Insert^JLine^JPerpendicular@Line Perpendicular
1002
}
  0
LINE
  5
370
100
AcDbEntity
  8
Exterior View
370
           0
  6
Continuous
 62
           7
 48
0.20000000298
100
AcDbLine
 10
66.693670841648
 20
1.515220531385
 30
0.0
 11
67.193670841687
 21
1.515220531385
 31
0.0
1001
TCAD
1000
TCW_CUSTOM_DATA
1002
{
1000
#$AUX@_ToolInfo Properties
1070
           8
1000
Insert^JLine^JPerpendicular@Line Perpendicular
1002
}
  0
POINT
  5
371
100
AcDbEntity
  8
Exterior View
  6
Continuous
 62
           7
100
AcDbPoint
 10
66.099942172925
 20
-0.389529038455
 30
0.0
1001
TCAD
1000
TCW_CUSTOM_DATA
1002
{
1000
#$AUX@_ToolInfo Properties
1070
           8
1000
Insert^JPoint^JCross@Point Cross
1002
}
1000
TC25ExternalObject
1002
{
1000
TCW30POINT
1000

1070
           0
1071
        0
1040
1.0
1040
0.0
1000
Continuous
1000
Exterior View
1070
          21
1071
        1
1071
      242
1010
66.099942172925
1020
-0.389529038455
1030
0.0
1070
           3
1071
-2147483645
1070
           1
1000
#$AUX@_ToolInfo Properties
1070
           8
1000
Insert^JPoint^JCross@Point Cross
1000
$POINTSIZE
1070
           5
1040
0.25
1000
$POINTTYPE
1070
          18
1070
           3
1000
ExplodeScale
1070
           5
1040
1.0
1002
}
  0
POINT
  5
372
100
AcDbEntity
  8
Exterior View
  6
Continuous
 62
           7
100
AcDbPoint
 10
66.974942172925
 20
-0.389529038455
 30
0.0
1001
TCAD
1000
TCW_CUSTOM_DATA
1002
{
1000
#$AUX@_ToolInfo Properties
1070
           8
1000
Insert^JPoint^JCross@Point Cross
1002
}
1000
TC25ExternalObject
1002
{
1000
TCW30POINT
1000

1070
           0
1071
        0
1040
1.0
1040
0.0
1000
Continuous
1000
Exterior View
1070
          21
1071
        1
1071
      242
1010
66.974942172925
1020
-0.389529038455
1030
0.0
1070
           3
1071
-2147483645
1070
           1
1000
#$AUX@_ToolInfo Properties
1070
           8
1000
Insert^JPoint^JCross@Point Cross
1000
$POINTSIZE
1070
           5
1040
0.25
1000
$POINTTYPE
1070
          18
1070
           3
1000
ExplodeScale
1070
           5
1040
1.0
1002
}
  0
POINT
  5
373
100
AcDbEntity
  8
Exterior View
  6
Continuous
 62
           7
100
AcDbPoint
 10
66.943670841648
 20
1.140220531385
 30
0.0
1001
TCAD
1000
TCW_CUSTOM_DATA
1002
{
1000
#$AUX@_ToolInfo Properties
1070
           8
1000
Insert^JPoint^JCross@Point Cross
1002
}
1000
TC25ExternalObject
1002
{
1000
TCW30POINT
1000

1070
           0
1071
        0
1040
1.0
1040
0.0
1000
Continuous
1000
Exterior View
1070
          21
1071
        1
1071
      242
1010
66.943670841648
1020
1.140220531385
1030
0.0
1070
           3
1071
-2147483645
1070
           1
1000
#$AUX@_ToolInfo Properties
1070
           8
1000
Insert^JPoint^JCross@Point Cross
1000
$POINTSIZE
1070
           5
1040
0.25
1000
$POINTTYPE
1070
          18
1070
           3
1000
ExplodeScale
1070
           5
1040
1.0
1002
}
  0
POINT
  5
374
100
AcDbEntity
  8
Exterior View
  6
Continuous
 62
           7
100
AcDbPoint
 10
66.155214187401
 20
1.371780404105
 30
0.0
1001
TCAD
1000
TCW_CUSTOM_DATA
1002
{
1000
#$AUX@_ToolInfo Properties
1070
           8
1000
Insert^JPoint^JCross@Point Cross
1002
}
1000
TC25ExternalObject
1002
{
1000
TCW30POINT
1000

1070
           0
1071
        0
1040
1.0
1040
0.0
1000
Continuous
1000
Exterior View
1070
          21
1071
        1
1071
      242
1010
66.155214187401
1020
1.371780404105
1030
0.0
1070
           3
1071
-2147483645
1070
           1
1000
#$AUX@_ToolInfo Properties
1070
           8
1000
Insert^JPoint^JCross@Point Cross
1000
$POINTSIZE
1070
           5
1040
0.25
1000
$POINTTYPE
1070
          18
1070
           3
1000
ExplodeScale
1070
           5
1040
1.0
1002
}
  0
LINE
  5
375
100
AcDbEntity
  8
Exterior View
370
           0
  6
Continuous
 62
           7
100
AcDbLine
 10
66.155214187401
 20
1.996780404105
 30
0.0
 11
66.155214187401
 21
0.746780404105
 31
0.0
1001
TCAD
1000
TCW_CUSTOM_DATA
1002
{
1000
#$AUX@_ToolInfo Properties
1070
           8
1000
Insert^JLine^JPerpendicular@Line Perpendicular
1002
}
  0
LINE
  5
376
100
AcDbEntity
  8
Exterior View
370
           0
  6
Continuous
 62
           7
100
AcDbLine
 10
66.030214187401
 20
0.996780404105
 30
0.0
 11
66.030214187401
 21
1.746780404105
 31
0.0
1001
TCAD
1000
TCW_CUSTOM_DATA
1002
{
1000
#$AUX@_ToolInfo Properties
1070
           8
1000
Insert^JLine^JPerpendicular@Line Perpendicular
1002
}
  0
LINE
  5
377
100
AcDbEntity
  8
Exterior View
370
           0
  6
Continuous
 62
           7
100
AcDbLine
 10
66.280214187401
 20
0.996780404105
 30
0.0
 11
66.280214187401
 21
1.746780404105
 31
0.0
1001
TCAD
1000
TCW_CUSTOM_DATA
1002
{
1000
#$AUX@_ToolInfo Properties
1070
           8
1000
Insert^JLine^JPerpendicular@Line Perpendicular
1002
}
  0
LINE
  5
378
100
AcDbEntity
  8
Exterior View
370
           0
  6
Continuous
 62
           7
100
AcDbLine
 10
66.943670841648
 20
1.765220531385
 30
0.0
 11
66.943670841648
 21
0.515220531385
 31
0.0
1001
TCAD
1000
TCW_CUSTOM_DATA
1002
{
1000
#$AUX@_ToolInfo Properties
1070
           8
1000
Insert^JLine^JPerpendicular@Line Perpendicular
1002
}
  0
LINE
  5
379
100
AcDbEntity
  8
Exterior View
370
           0
  6
Continuous
 62
           7
100
AcDbLine
 10
66.818670841648
 20
0.765220531385
 30
0.0
 11
66.818670841648
 21
1.515220531385
 31
0.0
1001
TCAD
1000
TCW_CUSTOM_DATA
1002
{
1000
#$AUX@_ToolInfo Properties
1070
           8
1000
Insert^JLine^JPerpendicular@Line Perpendicular
1002
}
  0
LINE
  5
37A
100
AcDbEntity
  8
Exterior View
370
           0
  6
Continuous
 62
           7
100
AcDbLine
 10
67.068670841648
 20
0.765220531385
 30
0.0
 11
67.068670841648
 21
1.515220531385
 31
0.0
1001
TCAD
1000
TCW_CUSTOM_DATA
1002
{
1000
#$AUX@_ToolInfo Properties
1070
           8
1000
Insert^JLine^JPerpendicular@Line Perpendicular
1002
}
  0
LINE
  5
37B
100
AcDbEntity
  8
Exterior View
370
           0
  6
Continuous
 62
           7
100
AcDbLine
 10
66.099942172925
 20
0.235470961545
 30
0.0
 11
66.099942172925
 21
-1.014529038455
 31
0.0
1001
TCAD
1000
TCW_CUSTOM_DATA
1002
{
1000
#$AUX@_ToolInfo Properties
1070
           8
1000
Insert^JLine^JPerpendicular@Line Perpendicular
1002
}
  0
LINE
  5
37C
100
AcDbEntity
  8
Exterior View
370
           0
  6
Continuous
 62
           7
100
AcDbLine
 10
65.974942172925
 20
-0.764529038455
 30
0.0
 11
65.974942172925
 21
-0.014529038455
 31
0.0
1001
TCAD
1000
TCW_CUSTOM_DATA
1002
{
1000
#$AUX@_ToolInfo Properties
1070
           8
1000
Insert^JLine^JPerpendicular@Line Perpendicular
1002
}
  0
LINE
  5
37D
100
AcDbEntity
  8
Exterior View
370
           0
  6
Continuous
 62
           7
100
AcDbLine
 10
66.224942172925
 20
-0.764529038455
 30
0.0
 11
66.224942172925
 21
-0.014529038455
 31
0.0
1001
TCAD
1000
TCW_CUSTOM_DATA
1002
{
1000
#$AUX@_ToolInfo Properties
1070
           8
1000
Insert^JLine^JPerpendicular@Line Perpendicular
1002
}
  0
LINE
  5
37E
100
AcDbEntity
  8
Exterior View
370
           0
  6
Continuous
 62
           7
100
AcDbLine
 10
66.974942172925
 20
0.235470961545
 30
0.0
 11
66.974942172925
 21
-1.014529038455
 31
0.0
1001
TCAD
1000
TCW_CUSTOM_DATA
1002
{
1000
#$AUX@_ToolInfo Properties
1070
           8
1000
Insert^JLine^JPerpendicular@Line Perpendicular
1002
}
  0
LINE
  5
37F
100
AcDbEntity
  8
Exterior View
370
           0
  6
Continuous
 62
           7
100
AcDbLine
 10
66.849942172925
 20
-0.764529038455
 30
0.0
 11
66.849942172925
 21
-0.014529038455
 31
0.0
1001
TCAD
1000
TCW_CUSTOM_DATA
1002
{
1000
#$AUX@_ToolInfo Properties
1070
           8
1000
Insert^JLine^JPerpendicular@Line Perpendicular
1002
}
  0
LINE
  5
380
100
AcDbEntity
  8
Exterior View
370
           0
  6
Continuous
 62
           7
100
AcDbLine
 10
67.099942172925
 20
-0.764529038455
 30
0.0
 11
67.099942172925
 21
-0.014529038455
 31
0.0
1001
TCAD
1000
TCW_CUSTOM_DATA
1002
{
1000
#$AUX@_ToolInfo Properties
1070
           8
1000
Insert^JLine^JPerpendicular@Line Perpendicular
1002
}
  0
LINE
  5
381
100
AcDbEntity
  8
Exterior View
370
           0
  6
Continuous
 62
           7
 48
0.20000000298
100
AcDbLine
 10
63.42249624883
 20
-0.709310643329
 30
0.0
 11
63.446678586244
 21
1.475279883814
 31
0.0
1001
TCAD
1000
TCW_CUSTOM_DATA
1002
{
1000
#$AUX@_ToolInfo Properties
1070
           8
1000
Insert^JLine^JSingle@Line Single
1002
}
  0
ARC
  5
382
100
AcDbEntity
  8
Exterior View
370
           0
  6
Continuous
 62
           7
 48
0.20000000298
100
AcDbCircle
 10
62.537628775358
 20
2.07147159737
 30
0.0
 40
1.087113663784
100
AcDbArc
 50
-33.258486461021
 51
-26.753787437314
  0
ARC
  5
383
100
AcDbEntity
  8
Exterior View
370
           0
  6
Continuous
 62
           7
 48
0.20000000298
100
AcDbCircle
 10
64.229642482022
 20
11.026464954883
 30
0.0
 40
11.875
100
AcDbArc
 50
-93.327838145246
 51
-86.67216183672
  0
ARC
  5
384
100
AcDbEntity
  8
Exterior View
370
           0
  6
Continuous
 62
           7
 48
0.20000000298
100
AcDbCircle
 10
63.547565777389
 20
-0.703721376502
 30
0.000000130625
 40
0.125
100
AcDbArc
 50
179.36578994215
 51
266.672160894085
1001
TCAD
1000
TCW_CUSTOM_DATA
1002
{
1000
#$AUX@_ToolInfo Properties
1070
           8
1000
Insert^JArc^JTanToEntities@Arc TanToEntities
1002
}
  0
ARC
  5
385
100
AcDbEntity
  8
Exterior View
370
           0
  6
Continuous
 62
           7
 48
0.20000000298
100
AcDbCircle
 10
64.911719186657
 20
-0.703721376502
 30
0.000000130625
 40
0.125
100
AcDbArc
 50
-86.672157246214
 51
0.634210057857
1001
TCAD
1000
TCW_CUSTOM_DATA
1002
{
1000
#$AUX@_ToolInfo Properties
1070
           8
1000
Insert^JArc^JTanToEntities@Arc TanToEntities
1002
}
  0
ARC
  5
386
100
AcDbEntity
  8
Exterior View
370
           0
  6
Continuous
 62
           7
 48
0.20000000298
100
AcDbCircle
 10
64.230624604331
 20
1.121998755211
 30
0.000000130625
 40
0.785844276127
100
AcDbArc
 50
0.634210057857
 51
89.825363420546
  0
LINE
  5
387
100
AcDbEntity
  8
Exterior View
370
           0
  6
Continuous
 62
           7
 48
0.20000000298
100
AcDbLine
 10
64.233019840857
 20
1.907839381015
 30
0.0
 11
64.037377749252
 21
1.907842981061
 31
0.0
1001
TCAD
1000
TCW_CUSTOM_DATA
1002
{
1000
#$AUX@_ToolInfo Properties
1070
           8
1000
Insert^JLine^JSingle@Line Single
1002
}
  0
ARC
  5
388
100
AcDbEntity
  8
Exterior View
370
           0
  6
Continuous
 62
           7
 48
0.20000000298
100
AcDbCircle
 10
64.037975385591
 20
1.314440224609
 30
0.0
 40
0.593403057402
100
AcDbArc
 50
90.057704531988
 51
153.188442281929
  0
LINE
  5
389
100
AcDbEntity
  8
Exterior View
370
           0
  6
Continuous
 62
           7
100
AcDbLine
 10
65.016420738578
 20
1.130697130041
 30
0.0
 11
65.036711528988
 21
-0.702337773049
 31
0.0
  0
LINE
  5
38A
100
AcDbEntity
  8
Exterior View
370
           0
  6
Continuous
 62
           7
100
AcDbLine
 10
65.912442172963
 20
15.883606843904
 30
0.0
 11
67.162442172963
 21
15.883606843904
 31
0.0
1001
TCAD
1000
TCW_CUSTOM_DATA
1002
{
1000
#$AUX@_ToolInfo Properties
1070
           8
1000
Insert^JLine^JSingle@Line Single
1002
}
  0
LINE
  5
38B
100
AcDbEntity
  8
Exterior View
370
           0
  6
Continuous
 62
           7
100
AcDbLine
 10
67.162442172963
 20
15.696097857142
 30
0.0
 11
65.912442172963
 21
15.69609785714
 31
0.0
1001
TCAD
1000
TCW_CUSTOM_DATA
1002
{
1000
#$AUX@_ToolInfo Properties
1070
           8
1000
Insert^JLine^JSingle@Line Single
1002
}
  0
LINE
  5
38C
100
AcDbEntity
  8
Exterior View
370
           0
  6
Continuous
 62
           7
100
AcDbLine
 10
66.537442172963
 20
23.656409825072
 30
0.0
 11
66.537442172963
 21
-2.718590174928
 31
0.0
1001
TCAD
1000
TCW_CUSTOM_DATA
1002
{
1000
#$AUX@_ToolInfo Properties
1070
           8
1000
Insert^JLine^JPerpendicular@Line Perpendicular
1002
}
  0
LINE
  5
38D
100
AcDbEntity
  8
Exterior View
370
           0
  6
Continuous
 62
           7
100
AcDbLine
 10
66.437442172963
 20
23.656409825072
 30
0.0
 11
66.437442172963
 21
-2.718590174928
 31
0.0
1001
TCAD
1000
TCW_CUSTOM_DATA
1002
{
1000
#$AUX@_ToolInfo Properties
1070
           8
1000
Insert^JLine^JPerpendicular@Line Perpendicular
1002
}
  0
LINE
  5
38E
100
AcDbEntity
  8
Exterior View
370
           0
  6
Continuous
 62
           7
100
AcDbLine
 10
66.637442172963
 20
23.656409825072
 30
0.0
 11
66.637442172963
 21
-2.718590174928
 31
0.0
1001
TCAD
1000
TCW_CUSTOM_DATA
1002
{
1000
#$AUX@_ToolInfo Properties
1070
           8
1000
Insert^JLine^JPerpendicular@Line Perpendicular
1002
}
  0
LINE
  5
38F
100
AcDbEntity
  8
Exterior View
370
           0
  6
Continuous
 62
           7
100
AcDbLine
 10
76.746682989806
 20
14.446097857152
 30
0.0
 11
74.556576944444
 21
14.446097857152
 31
0.0
1001
TCAD
1000
TCW_CUSTOM_DATA
1002
{
1000
#$AUX@_ToolInfo Properties
1070
           8
1000
Insert^JLine^JPerpendicular@Line Perpendicular
1002
}
  0
LINE
  5
390
100
AcDbEntity
  8
Exterior View
370
           0
  6
Continuous
 62
           7
100
AcDbLine
 10
76.746682989806
 20
13.266097857152
 30
0.0
 11
74.556576944444
 21
13.266097857152
 31
0.0
1001
TCAD
1000
TCW_CUSTOM_DATA
1002
{
1000
#$AUX@_ToolInfo Properties
1070
           8
1000
Insert^JLine^JPerpendicular@Line Perpendicular
1002
}
  0
LINE
  5
391
100
AcDbEntity
  8
Exterior View
370
           0
  6
Continuous
 62
           7
100
AcDbLine
 10
76.746682989806
 20
12.153097857152
 30
0.0
 11
74.556576944444
 21
12.153097857152
 31
0.0
1001
TCAD
1000
TCW_CUSTOM_DATA
1002
{
1000
#$AUX@_ToolInfo Properties
1070
           8
1000
Insert^JLine^JPerpendicular@Line Perpendicular
1002
}
  0
LINE
  5
392
100
AcDbEntity
  8
Exterior View
370
           0
  6
Continuous
 62
           7
100
AcDbLine
 10
76.746682989807
 20
11.102097857152
 30
0.0
 11
74.556576944444
 21
11.102097857152
 31
0.0
1001
TCAD
1000
TCW_CUSTOM_DATA
1002
{
1000
#$AUX@_ToolInfo Properties
1070
           8
1000
Insert^JLine^JPerpendicular@Line Perpendicular
1002
}
  0
LINE
  5
393
100
AcDbEntity
  8
Exterior View
370
           0
  6
Continuous
 62
           7
100
AcDbLine
 10
76.746682989807
 20
10.110097857152
 30
0.0
 11
74.556576944444
 21
10.110097857152
 31
0.0
1001
TCAD
1000
TCW_CUSTOM_DATA
1002
{
1000
#$AUX@_ToolInfo Properties
1070
           8
1000
Insert^JLine^JPerpendicular@Line Perpendicular
1002
}
  0
LINE
  5
394
100
AcDbEntity
  8
Exterior View
370
           0
  6
Continuous
 62
           7
100
AcDbLine
 10
76.746682989807
 20
9.173097857152
 30
0.0
 11
74.556576944444
 21
9.173097857152
 31
0.0
1001
TCAD
1000
TCW_CUSTOM_DATA
1002
{
1000
#$AUX@_ToolInfo Properties
1070
           8
1000
Insert^JLine^JPerpendicular@Line Perpendicular
1002
}
  0
LINE
  5
395
100
AcDbEntity
  8
Exterior View
370
           0
  6
Continuous
 62
           7
100
AcDbLine
 10
76.746682989807
 20
8.289097857152
 30
0.0
 11
74.556576944444
 21
8.289097857152
 31
0.0
1001
TCAD
1000
TCW_CUSTOM_DATA
1002
{
1000
#$AUX@_ToolInfo Properties
1070
           8
1000
Insert^JLine^JPerpendicular@Line Perpendicular
1002
}
  0
LINE
  5
396
100
AcDbEntity
  8
Exterior View
370
           0
  6
Continuous
 62
           7
100
AcDbLine
 10
76.746682989807
 20
7.455097857152
 30
0.0
 11
74.556576944444
 21
7.455097857152
 31
0.0
1001
TCAD
1000
TCW_CUSTOM_DATA
1002
{
1000
#$AUX@_ToolInfo Properties
1070
           8
1000
Insert^JLine^JPerpendicular@Line Perpendicular
1002
}
  0
LINE
  5
397
100
AcDbEntity
  8
Exterior View
370
           0
  6
Continuous
 62
           7
100
AcDbLine
 10
76.746682989807
 20
6.668097857152
 30
0.0
 11
74.556576944444
 21
6.668097857152
 31
0.0
1001
TCAD
1000
TCW_CUSTOM_DATA
1002
{
1000
#$AUX@_ToolInfo Properties
1070
           8
1000
Insert^JLine^JPerpendicular@Line Perpendicular
1002
}
  0
LINE
  5
398
100
AcDbEntity
  8
Exterior View
370
           0
  6
Continuous
 62
           7
100
AcDbLine
 10
76.746682989807
 20
5.925097857152
 30
0.0
 11
74.556576944444
 21
5.925097857152
 31
0.0
1001
TCAD
1000
TCW_CUSTOM_DATA
1002
{
1000
#$AUX@_ToolInfo Properties
1070
           8
1000
Insert^JLine^JPerpendicular@Line Perpendicular
1002
}
  0
LINE
  5
399
100
AcDbEntity
  8
Exterior View
370
           0
  6
Continuous
 62
           7
100
AcDbLine
 10
76.746682989807
 20
5.223097857152
 30
0.0
 11
74.556576944444
 21
5.223097857152
 31
0.0
1001
TCAD
1000
TCW_CUSTOM_DATA
1002
{
1000
#$AUX@_ToolInfo Properties
1070
           8
1000
Insert^JLine^JPerpendicular@Line Perpendicular
1002
}
  0
LINE
  5
39A
100
AcDbEntity
  8
Exterior View
370
           0
  6
Continuous
 62
           7
100
AcDbLine
 10
76.746682989807
 20
4.561097857152
 30
0.0
 11
74.556576944444
 21
4.561097857152
 31
0.0
1001
TCAD
1000
TCW_CUSTOM_DATA
1002
{
1000
#$AUX@_ToolInfo Properties
1070
           8
1000
Insert^JLine^JPerpendicular@Line Perpendicular
1002
}
  0
LINE
  5
39B
100
AcDbEntity
  8
Exterior View
370
           0
  6
Continuous
 62
           7
100
AcDbLine
 10
76.746682989807
 20
3.936097857152
 30
0.0
 11
74.556576944444
 21
3.936097857152
 31
0.0
1001
TCAD
1000
TCW_CUSTOM_DATA
1002
{
1000
#$AUX@_ToolInfo Properties
1070
           8
1000
Insert^JLine^JPerpendicular@Line Perpendicular
1002
}
  0
LINE
  5
39C
100
AcDbEntity
  8
Exterior View
370
           0
  6
Continuous
 62
           7
100
AcDbLine
 10
76.746682989807
 20
3.346097857152
 30
0.0
 11
74.556576944444
 21
3.346097857152
 31
0.0
1001
TCAD
1000
TCW_CUSTOM_DATA
1002
{
1000
#$AUX@_ToolInfo Properties
1070
           8
1000
Insert^JLine^JPerpendicular@Line Perpendicular
1002
}
  0
LINE
  5
39D
100
AcDbEntity
  8
Exterior View
370
           0
  6
Continuous
 62
           7
100
AcDbLine
 10
76.746682989807
 20
2.789097857152
 30
0.0
 11
74.556576944444
 21
2.789097857152
 31
0.0
1001
TCAD
1000
TCW_CUSTOM_DATA
1002
{
1000
#$AUX@_ToolInfo Properties
1070
           8
1000
Insert^JLine^JPerpendicular@Line Perpendicular
1002
}
  0
LINE
  5
39E
100
AcDbEntity
  8
Exterior View
370
           0
  6
Continuous
 62
           7
100
AcDbLine
 10
76.746682989807
 20
2.264097857152
 30
0.0
 11
74.556576944444
 21
2.264097857152
 31
0.0
1001
TCAD
1000
TCW_CUSTOM_DATA
1002
{
1000
#$AUX@_ToolInfo Properties
1070
           8
1000
Insert^JLine^JPerpendicular@Line Perpendicular
1002
}
  0
LINE
  5
39F
100
AcDbEntity
  8
Exterior View
370
           0
  6
Continuous
 62
           7
100
AcDbLine
 10
76.746682989807
 20
1.768097857152
 30
0.0
 11
74.556576944444
 21
1.768097857152
 31
0.0
1001
TCAD
1000
TCW_CUSTOM_DATA
1002
{
1000
#$AUX@_ToolInfo Properties
1070
           8
1000
Insert^JLine^JPerpendicular@Line Perpendicular
1002
}
  0
LINE
  5
3A0
100
AcDbEntity
  8
Exterior View
370
           0
  6
Continuous
 62
           7
100
AcDbLine
 10
76.746682989807
 20
1.300097857152
 30
0.0
 11
74.556576944444
 21
1.300097857152
 31
0.0
1001
TCAD
1000
TCW_CUSTOM_DATA
1002
{
1000
#$AUX@_ToolInfo Properties
1070
           8
1000
Insert^JLine^JPerpendicular@Line Perpendicular
1002
}
  0
LINE
  5
3A1
100
AcDbEntity
  8
Exterior View
370
           0
  6
Continuous
 62
           7
100
AcDbLine
 10
76.746682989807
 20
0.858097857152
 30
0.0
 11
74.556576944444
 21
0.858097857152
 31
0.0
1001
TCAD
1000
TCW_CUSTOM_DATA
1002
{
1000
#$AUX@_ToolInfo Properties
1070
           8
1000
Insert^JLine^JPerpendicular@Line Perpendicular
1002
}
  0
LINE
  5
3A2
100
AcDbEntity
  8
Exterior View
370
           0
  6
Continuous
 62
           7
100
AcDbLine
 10
76.746682989807
 20
0.441097857152
 30
0.0
 11
74.556576944444
 21
0.441097857152
 31
0.0
1001
TCAD
1000
TCW_CUSTOM_DATA
1002
{
1000
#$AUX@_ToolInfo Properties
1070
           8
1000
Insert^JLine^JPerpendicular@Line Perpendicular
1002
}
  0
LINE
  5
3A3
100
AcDbEntity
  8
Exterior View
370
           0
  6
Continuous
 62
           7
100
AcDbLine
 10
76.746682989807
 20
0.047097857152
 30
0.0
 11
74.556576944444
 21
0.047097857152
 31
0.0
1001
TCAD
1000
TCW_CUSTOM_DATA
1002
{
1000
#$AUX@_ToolInfo Properties
1070
           8
1000
Insert^JLine^JPerpendicular@Line Perpendicular
1002
}
  0
LINE
  5
3A4
100
AcDbEntity
  8
Exterior View
370
           0
  6
Continuous
 62
           7
100
AcDbLine
 10
76.746682989807
 20
-0.324902142848
 30
0.0
 11
74.556576944444
 21
-0.324902142848
 31
0.0
1001
TCAD
1000
TCW_CUSTOM_DATA
1002
{
1000
#$AUX@_ToolInfo Properties
1070
           8
1000
Insert^JLine^JPerpendicular@Line Perpendicular
1002
}
  0
LINE
  5
3A5
100
AcDbEntity
  8
Exterior View
370
           0
  6
Continuous
 62
           7
100
AcDbLine
 10
74.556576944444
 20
15.696097857152
 30
0.0
 11
76.746682989806
 21
15.696097857152
 31
0.0
1001
TCAD
1000
TCW_CUSTOM_DATA
1002
{
1000
#$AUX@_ToolInfo Properties
1070
           8
1000
Insert^JLine^JSingle@Line Single
1002
}
  0
LINE
  5
3A6
100
AcDbEntity
  8
Exterior View
370
           0
  6
Continuous
 62
           7
100
AcDbLine
 10
74.9348439387
 20
-1.182618792977
 30
0.0
 11
75.121682989806
 21
15.696097857152
 31
0.0
1001
TCAD
1000
TCW_CUSTOM_DATA
1002
{
1000
#$AUX@_ToolInfo Properties
1070
           8
1000
Insert^JLine^JSingle@Line Single
1002
}
  0
LINE
  5
3A7
100
AcDbEntity
  8
Exterior View
370
           0
  6
Continuous
 62
           7
100
AcDbLine
 10
76.525859065972
 20
1.768097857152
 30
0.0
 11
74.967506913642
 21
1.768097857152
 31
0.0
1001
TCAD
1000
TCW_CUSTOM_DATA
1002
{
1000
#$AUX@_ToolInfo Properties
1070
           8
1000
Insert^JLine^JPerpendicular@Line Perpendicular
1002
}
  0
LINE
  5
3A8
100
AcDbEntity
  8
Exterior View
370
           0
  6
Continuous
 62
           7
100
AcDbLine
 10
76.53593231621
 20
0.858097857152
 30
0.0
 11
74.957433663404
 21
0.858097857152
 31
0.0
1001
TCAD
1000
TCW_CUSTOM_DATA
1002
{
1000
#$AUX@_ToolInfo Properties
1070
           8
1000
Insert^JLine^JPerpendicular@Line Perpendicular
1002
}
  0
LINE
  5
3A9
100
AcDbEntity
  8
Exterior View
370
           0
  6
Continuous
 62
           7
100
AcDbLine
 10
74.556576944444
 20
-0.675902142848
 30
0.0
 11
76.746682989807
 21
-0.675902142848
 31
0.0
1001
TCAD
1000
TCW_CUSTOM_DATA
1002
{
1000
#$AUX@_ToolInfo Properties
1070
           8
1000
Insert^JLine^JPerpendicular@Line Perpendicular
1002
}
  0
LINE
  5
3AA
100
AcDbEntity
  8
Exterior View
370
           0
  6
Continuous
 62
           7
100
AcDbLine
 10
74.556576944444
 20
-1.006902142848
 30
0.0
 11
76.746682989807
 21
-1.006902142848
 31
0.0
1001
TCAD
1000
TCW_CUSTOM_DATA
1002
{
1000
#$AUX@_ToolInfo Properties
1070
           8
1000
Insert^JLine^JPerpendicular@Line Perpendicular
1002
}
  0
ARC
  5
3AB
100
AcDbEntity
  8
Exterior View
370
           0
  6
Continuous
 62
           7
100
AcDbCircle
 10
75.746682989806
 20
10.664597857152
 30
0.0
 40
11.875
100
AcDbArc
 50
-93.920106231505
 51
-86.079893768488
  0
LINE
  5
3AC
100
AcDbEntity
  8
Exterior View
370
           0
  6
Continuous
 62
           7
100
AcDbLine
 10
76.558522040914
 20
-1.303902142848
 30
0.0
 11
76.558522040913
 21
15.696097857152
 31
0.0
1001
TCAD
1000
TCW_CUSTOM_DATA
1002
{
1000
#$AUX@_ToolInfo Properties
1070
           8
1000
Insert^JLine^JPerpendicular@Line Perpendicular
1002
}
  0
LINE
  5
3AD
100
AcDbEntity
  8
Exterior View
370
           0
  6
Continuous
 62
           7
100
AcDbLine
 10
74.746682989807
 20
-1.303902142848
 30
0.0
 11
74.746682989806
 21
15.696097857152
 31
0.0
1001
TCAD
1000
TCW_CUSTOM_DATA
1002
{
1000
#$AUX@_ToolInfo Properties
1070
           8
1000
Insert^JLine^JPerpendicular@Line Perpendicular
1002
}
  0
CIRCLE
  5
3AE
100
AcDbEntity
  8
Exterior View
370
           0
  6
Continuous
 62
           7
100
AcDbCircle
 10
75.746682989807
 20
3.067597857152
 30
0.0
 40
0.07874015748
1001
TCAD
1000
TCW_CUSTOM_DATA
1002
{
1000
#$AUX@_ToolInfo Properties
1070
           8
1000
Insert^JCircle^JCenterAndPoint@Circle CenterAndPoint
1002
}
  0
CIRCLE
  5
3AF
100
AcDbEntity
  8
Exterior View
370
           0
  6
Continuous
 62
           7
100
AcDbCircle
 10
75.746682989807
 20
2.016097857152
 30
0.0
 40
0.07874015748
1001
TCAD
1000
TCW_CUSTOM_DATA
1002
{
1000
#$AUX@_ToolInfo Properties
1070
           8
1000
Insert^JCircle^JCenterAndPoint@Circle CenterAndPoint
1002
}
  0
CIRCLE
  5
3B0
100
AcDbEntity
  8
Exterior View
370
           0
  6
Continuous
 62
           7
100
AcDbCircle
 10
75.746842716909
 20
1.079097857152
 30
0.0
 40
0.07874015748
1001
TCAD
1000
TCW_CUSTOM_DATA
1002
{
1000
#$AUX@_ToolInfo Properties
1070
           8
1000
Insert^JCircle^JCenterAndPoint@Circle CenterAndPoint
1002
}
  0
CIRCLE
  5
3B1
100
AcDbEntity
  8
Exterior View
370
           0
  6
Continuous
 62
           7
100
AcDbCircle
 10
75.746682989807
 20
-0.138902142848
 30
0.0
 40
0.07874015748
1001
TCAD
1000
TCW_CUSTOM_DATA
1002
{
1000
#$AUX@_ToolInfo Properties
1070
           8
1000
Insert^JCircle^JCenterAndPoint@Circle CenterAndPoint
1002
}
  0
CIRCLE
  5
3B2
100
AcDbEntity
  8
Exterior View
370
           0
  6
Continuous
 62
           7
100
AcDbCircle
 10
75.746682989807
 20
6.296597857152
 30
0.0
 40
0.07874015748
1001
TCAD
1000
TCW_CUSTOM_DATA
1002
{
1000
#$AUX@_ToolInfo Properties
1070
           8
1000
Insert^JCircle^JCenterAndPoint@Circle CenterAndPoint
1002
}
  0
CIRCLE
  5
3B3
100
AcDbEntity
  8
Exterior View
370
           0
  6
Continuous
 62
           7
100
AcDbCircle
 10
75.746682989807
 20
8.731097857152
 30
0.0
 40
0.07874015748
1001
TCAD
1000
TCW_CUSTOM_DATA
1002
{
1000
#$AUX@_ToolInfo Properties
1070
           8
1000
Insert^JCircle^JCenterAndPoint@Circle CenterAndPoint
1002
}
  0
CIRCLE
  5
3B4
100
AcDbEntity
  8
Exterior View
370
           0
  6
Continuous
 62
           7
100
AcDbCircle
 10
75.746682989806
 20
10.606097857152
 30
0.0
 40
0.07874015748
1001
TCAD
1000
TCW_CUSTOM_DATA
1002
{
1000
#$AUX@_ToolInfo Properties
1070
           8
1000
Insert^JCircle^JCenterAndPoint@Circle CenterAndPoint
1002
}
  0
CIRCLE
  5
3B5
100
AcDbEntity
  8
Exterior View
370
           0
  6
Continuous
 62
           7
100
AcDbCircle
 10
75.746682989806
 20
12.709597857152
 30
0.0
 40
0.07874015748
1001
TCAD
1000
TCW_CUSTOM_DATA
1002
{
1000
#$AUX@_ToolInfo Properties
1070
           8
1000
Insert^JCircle^JCenterAndPoint@Circle CenterAndPoint
1002
}
  0
CIRCLE
  5
3B6
100
AcDbEntity
  8
Exterior View
370
           0
  6
Continuous
 62
           7
100
AcDbCircle
 10
75.374385519695
 20
4.892097857201
 30
-0.000000235132
 40
0.07874015748
1001
TCAD
1000
TCW_CUSTOM_DATA
1002
{
1000
#$AUX@_ToolInfo Properties
1070
           8
1000
Insert^JCircle^JCenterAndPoint@Circle CenterAndPoint
1002
}
  0
CIRCLE
  5
3B7
100
AcDbEntity
  8
Exterior View
370
           0
  6
Continuous
 62
           7
100
AcDbCircle
 10
76.11898045988
 20
4.892097857157
 30
-0.000000235132
 40
0.07874015748
1001
TCAD
1000
TCW_CUSTOM_DATA
1002
{
1000
#$AUX@_ToolInfo Properties
1070
           8
1000
Insert^JCircle^JCenterAndPoint@Circle CenterAndPoint
1002
}
  0
LINE
  5
3B8
100
AcDbEntity
  8
Exterior View
370
           0
  6
Continuous
 62
           7
100
AcDbLine
 10
2.9375
 20
23.25315981532
 30
0.0
 11
1.6875
 21
23.25315981532
 31
0.0
1001
TCAD
1000
TCW_CUSTOM_DATA
1002
{
1000
#$AUX@_ToolInfo Properties
1070
           8
1000
Insert^JLine^JPerpendicular@Line Perpendicular
1002
}
  0
ELLIPSE
  5
3B9
100
AcDbEntity
  8
Exterior View
370
           0
  6
Continuous
 62
           7
100
AcDbEllipse
 10
2.444356356358
 20
23.257907821113
 30
-0.000000209
 11
0.0
 21
-0.878398386909744
 31
0.0
210
0.0
220
0.0
230
1.0
 40
0.86497150363
 41
-1.4828980707258634
 42
-0.3497589142529498
1001
TCAD
1000
TCW_CUSTOM_DATA
1002
{
1000
#$AUX@_ToolInfo Properties
1070
           8
1000
Insert^JArc^JTriplePoint132@Arc TriplePoint132
1002
}
  0
ELLIPSE
  5
3BA
100
AcDbEntity
  8
Exterior View
370
           0
  6
Continuous
 62
           7
100
AcDbEllipse
 10
2.180643643642
 20
23.257907821113
 30
-0.000000209
 11
0.0
 21
-0.878398386909744
 31
0.0
210
0.0
220
0.0
230
1.0
 40
0.86497150363
 41
0.3497589202177001
 42
1.4828980707258625
1001
TCAD
1000
TCW_CUSTOM_DATA
1002
{
1000
#$AUX@_ToolInfo Properties
1070
           8
1000
Insert^JArc^JTriplePoint132@Arc TriplePoint132
1002
}
  0
ELLIPSE
  5
3BB
100
AcDbEntity
  8
Exterior View
370
           0
  6
Continuous
 62
           7
100
AcDbEllipse
 10
2.3125
 20
22.813347409223
 30
-0.000000209
 11
0.0
 21
-0.40518759390255
 31
0.0
210
0.0
220
0.0
230
1.0
 40
0.925497240397
 41
-0.3497589202177169
 42
0.3497589935907455
  0
LINE
  5
3BC
100
AcDbEntity
  8
Exterior View
370
           0
  6
Continuous
 62
           7
100
AcDbLine
 10
2.4125
 20
23.03315981532
 30
0.0
 11
2.4125
 21
22.78315981532
 31
0.0
1001
TCAD
1000
TCW_CUSTOM_DATA
1002
{
1000
#$AUX@_ToolInfo Properties
1070
           8
1000
Insert^JLine^JPerpendicular@Line Perpendicular
1002
}
  0
LINE
  5
3BD
100
AcDbEntity
  8
Exterior View
370
           0
  6
Continuous
 62
           7
100
AcDbLine
 10
2.2125
 20
23.03315981532
 30
0.0
 11
2.2125
 21
22.78315981532
 31
0.0
1001
TCAD
1000
TCW_CUSTOM_DATA
1002
{
1000
#$AUX@_ToolInfo Properties
1070
           8
1000
Insert^JLine^JPerpendicular@Line Perpendicular
1002
}
  0
LINE
  5
3BE
100
AcDbEntity
  8
Exterior View
370
           0
  6
Continuous
 62
           7
100
AcDbLine
 10
2.2125
 20
22.78315981532
 30
0.0
 11
2.4125
 21
22.78315981532
 31
0.0
1001
TCAD
1000
TCW_CUSTOM_DATA
1002
{
1000
#$AUX@_ToolInfo Properties
1070
           8
1000
Insert^JLine^JPerpendicular@Line Perpendicular
1002
}
  0
ENDSEC
  0
SECTION
  2
OBJECTS
  0
DICTIONARY
  5
19
100
AcDbDictionary
280
           0
281
           1
  3
ACAD_GROUP
350
1A
  3
ACAD_MLINESTYLE
350
1B
  3
ACAD_LAYOUT
350
1E
  3
ACAD_PLOTSETTINGS
350
22
  3
ACAD_PLOTSTYLENAME
350
1F
  0
DICTIONARY
  5
1A
102
{ACAD_REACTORS
330
19
102
}
100
AcDbDictionary
280
           0
281
           1
  0
DICTIONARY
  5
1B
102
{ACAD_REACTORS
330
19
102
}
100
AcDbDictionary
280
           0
281
           1
  3
Standard
350
1C
  0
MLINESTYLE
  5
1C
100
AcDbMlineStyle
  2
STANDARD
 70
           0
  3

 62
         256
 51
90.0
 52
90.0
 71
           3
 49
0.25
 62
           7
  6
ByLayer
 49
0.0
 62
           7
  6
ByLayer
 49
-0.25
 62
           7
  6
ByLayer
  0
ACDBDICTIONARYWDFLT
  5
1F
102
{ACAD_REACTORS
330
19
102
}
100
AcDbDictionary
281
           1
  3
Normal
350
1D
100
AcDbDictionaryWithDefault
340
1D
  0
ACDBPLACEHOLDER
  5
1D
102
{ACAD_REACTORS
330
1F
102
}
  0
LAYOUT
  5
21
102
{ACAD_REACTORS
330
1E
102
}
100
AcDbPlotSettings
  1

  2

  4

  6

 40
0.0
 41
0.0
 42
0.0
 43
0.0
 44
0.0
 45
0.0
 46
0.0
 47
0.0
 48
0.0
 49
0.0
140
0.0
141
0.0
142
1.0
143
1.0
 70
           0
 72
           0
 73
           0
 74
           0
  7

 75
           0
147
1.0
148
0.0
149
0.0
100
AcDbLayout
  1
Layout1
 70
           0
 71
           0
 10
0.0
 20
0.0
 11
0.0
 21
0.0
 12
0.0
 22
0.0
 32
0.0
 14
0.0
 24
0.0
 34
0.0
 15
0.0
 25
0.0
 35
0.0
146
0.0
 13
0.0
 23
0.0
 33
0.0
 16
0.0
 26
0.0
 36
0.0
 17
0.0
 27
0.0
 37
0.0
 76
           0
330
B
331
0
345
0
346
0
  0
DICTIONARY
  5
1E
102
{ACAD_REACTORS
330
19
102
}
100
AcDbDictionary
280
           0
281
           1
  3
Model
350
3BF
  3
Paper 1
350
3C0
  0
DICTIONARY
  5
22
102
{ACAD_REACTORS
330
19
102
}
100
AcDbDictionary
280
           0
281
           1
  0
LAYOUT
  5
3BF
100
AcDbPlotSettings
  1

  2

  4

  6

 40
0.0
 41
0.0
 42
0.0
 43
0.0
 44
0.0
 45
0.0
 46
0.0
 47
0.0
 48
0.0
 49
0.0
140
0.0
141
0.0
142
1.0
143
1.0
 70
           0
 72
           0
 73
           0
 74
           0
  7

 75
           0
147
1.0
148
0.0
149
0.0
100
AcDbLayout
  1
Model
 70
           0
 71
           0
 10
0.0
 20
0.0
 11
0.0
 21
0.0
 12
0.0
 22
0.0
 32
0.0
 14
0.0
 24
0.0
 34
0.0
 15
0.0
 25
0.0
 35
0.0
146
0.0
 13
0.0
 23
0.0
 33
0.0
 16
0.0
 26
0.0
 36
0.0
 17
0.0
 27
0.0
 37
0.0
 76
           0
330
A
331
0
345
0
346
0
  0
LAYOUT
  5
3C0
100
AcDbPlotSettings
  1

  2
none_device
  4

  6

 40
0.0
 41
0.0
 42
0.0
 43
0.0
 44
0.0
 45
0.0
 46
0.0
 47
0.0
 48
0.0
 49
0.0
140
0.0
141
0.0
142
1.0
143
1.0
 70
           0
 72
           0
 73
           0
 74
           0
  7

 75
           0
147
1.0
148
0.0
149
0.0
100
AcDbLayout
  1
Paper 1
 70
           1
 71
           1
 10
0.0
 20
0.0
 11
0.0
 21
0.0
 12
0.0
 22
0.0
 32
0.0
 14
0.0
 24
0.0
 34
0.0
 15
0.0
 25
0.0
 35
0.0
146
0.0
 13
0.0
 23
0.0
 33
0.0
 16
0.0
 26
0.0
 36
0.0
 17
0.0
 27
0.0
 37
0.0
 76
           0
330
B
331
0
345
0
346
0
  0
ENDSEC
  0
EOF
